Song name
# A B C D E F G H I J K L M N O P Q R S T U V W X Y Z

Weeping Willows - Call Me Anything Acoustic tab

#----------------------------------PLEASE NOTE---------------------------------#
#This file is the author's own work and represents their interpretation of the #
#song. You may only use this file for private study, scholarship, or research. #
#------------------------------------------------------------------------------#
CALL ME ANYTHING - ACOUSTIC VERSION 
As recorded by Weeping Willows
(From the 2004 Album PRESENCE)




Arranged by Gabriel Edefors


Gtr I (E A D G B E) - 'Untitled'

    Emadd2
      Gtr I
    E E E E E E E E   E E E E E E E E     E E E E E E E E   E E E E E E E E
||------------------|------------------||-----------------|------------------|
||o-----0-----------|---0-------------o||-----------------|------------------|
||----------0-------|-----0---0--------||---------0-------|---------0--------|
||----4-------4---4-|-----------4---4--||-----4-----4---4-|-----4-----4---4--|
||o-------2-----2---|-------2-----2---o||---2---2-----2---|---2---2-----2----|
||--0---------------|-0----------------||-0---------------|-0----------------|
                                         The first time I met you

                                      Am
  E E E E E E E E   E E E E E E E E   E E E E E E E E   E E E E E E E E
|-----------------|-----------------|-----------------|-----------------|
|-----------------|-----------------|-----1---0-1-----|-----1---0-1-----|
|---------0-------|---------0-------|-------------2---|-------------2---|
|-----4-----4---4-|-----4-----4---4-|---2---2-------2-|---2---2-------2-|
|---2---2-----2---|---2---2-----2---|-0---------------|-0---------------|
|-0---------------|-0---------------|-----------------|-----------------|
    I touched you with my unclean hands   I was half honest

  G                 G/Gb
  E E E E E E E E   E E E E E E E E   E E E E E E E E   E E E E E E E E
|-----------------|-----------------|-----------------|-----------------|
|---------0-------|---------0-------|-----------------|-----------------|
|-----0-----0---0-|-----0-----0---0-|---------0-------|---------0-------|
|---0---0-----0---|---0---0-----0---|-----4-----4---4-|-----4-----4---4-|
|-----------------|-----------------|---2---2-----2---|---2---2-----2---|
|-3---------------|-2---------------|-0---------------|-0---------------|
          And  my   mind was on a spree Don't say you love me

  E E E E E E E E   E E E E E E E E   E E E E E E E E   E E E E E E E E
|-----------------|-----------------|-----------------|-----------------|
|-----------------|-----------------|-----1---0-1-----|-----1---0-1-----|
|---------0-------|---------0-------|-------------2---|-------------2---|
|-----4-----4---4-|-----4-----4---4-|---2---2-------2-|---2---2-------2-|
|---2---2-----2---|---2---2-----2---|-0---------------|-0---------------|
|-0---------------|-0---------------|-----------------|-----------------|
        Because it means I might get hurt      But when you're smiling

                                        Cadd2             Amadd2
  E E E E E E E E   E E E E E E E E     E E E E E E E E   E E E E E E E E
|-----------------|-----------------||------------------|-----------------|
|---------0-------|---------0-------||o---------3-------|---------0-------|
|-----0-----0---0-|-----4-----4---4-||------0-----0---0-|---2---2---2---2-|
|---0---0-----0---|---4---4-----4---||----2---2-----2---|-----2-------2---|
|-----------------|-2---------------||o-3---------------|-0---------------|
|-3---------------|-----------------||------------------|-----------------|
          I get goosebumps all over me          You can...Anytime      you
                                                You can...Everything   you 
  G                 Em
  E E E E E E E E   E E E E E E E E
|-----------------|------------------||-|
|---------0-------|---------0-------o||-|
|-----0-----0---0-|-----0-----0---0--||-|
|---0---0-----0---|---2---2-----2----||-|  Repeat refrain:
|-----------------|-2---------------o||-|
|-3---------------|------------------||-|
  want to    cause I like you

    E E E E E E E E   E E E E E E E E  3x
||------------------|------------------||---|
||o---------1-------|---------0-------o||---|
||------0-----0---0-|---2---2---2---2--||---|
||----2---2-----2---|-----2-------2----||---|
||o-3---------------|-0---------------o||---|
||------------------|------------------||---|
No one but you can call me baby
No one but you can call me ugly
You can call me anything you want to

               
  E E E E E E E E   
|-----------------|
|---------0-------|
|-----0-----0---0-|
|---2---2-----2---|
|-2---------------|
|-----------------|

Back to intro part and then verse:

    Emadd2
      Gtr I
    E E E E E E E E   E E E E E E E E     E E E E E E E E   E E E E E E E E
||------------------|------------------||-----------------|------------------|
||o-----0-----------|---0-------------o||-----------------|------------------|
||----------0-------|-----0---0--------||---------0-------|---------0--------|
||----4-------4---4-|-----------4---4--||-----4-----4---4-|-----4-----4---4--|
||o-------2-----2---|-------2-----2---o||---2---2-----2---|---2---2-----2----|
||--0---------------|-0----------------||-0---------------|-0----------------|Ill put my cards out

                                      Am
  E E E E E E E E   E E E E E E E E   E E E E E E E E   E E E E E E E E
|-----------------|-----------------|-----------------|-----------------|
|-----------------|-----------------|-----1---0-1-----|-----1---0-1-----|
|---------0-------|---------0-------|-------------2---|-------------2---|
|-----4-----4---4-|-----4-----4---4-|---2---2-------2-|---2---2-------2-|
|---2---2-----2---|---2---2-----2---|-0---------------|-0---------------|
|-0---------------|-0---------------|-----------------|-----------------|
          On the    table tonight        Need to be needed

  G                 G/Gb
  E E E E E E E E   E E E E E E E E   E E E E E E E E   E E E E E E E E
|-----------------|-----------------|-----------------|-----------------|
|---------0-------|---------0-------|-----------------|-----------------|
|-----0-----0---0-|-----0-----0---0-|---------0-------|---------0-------|
|---0---0-----0---|---0---0-----0---|-----4-----4---4-|-----4-----4---4-|
|-----------------|-----------------|---2---2-----2---|---2---2-----2---|
|-3---------------|-2---------------|-0---------------|-0---------------|
          Or was it love at last sight         When Im drugged up

  E E E E E E E E   E E E E E E E E   E E E E E E E E   E E E E E E E E
|-----------------|-----------------|-----------------|-----------------|
|-----------------|-----------------|-----1---0-1-----|-----1---0-1-----|
|---------0-------|---------0-------|-------------2---|-------------2---|
|-----4-----4---4-|-----4-----4---4-|---2---2-------2-|---2---2-------2-|
|---2---2-----2---|---2---2-----2---|-0---------------|-0---------------|
|-0---------------|-0---------------|-----------------|-----------------|
        I get loved up you          see        I like dogs
                                        Cadd2             Amadd2
  E E E E E E E E   E E E E E E E E     E E E E E E E E   E E E E E E E E
|-----------------|-----------------||------------------|-----------------|
|---------0-------|---------0-------||o---------3-------|---------0-------|
|-----0-----0---0-|-----4-----4---4-||------0-----0---0-|---2---2---2---2-|
|---0---0-----0---|---4---4-----4---||----2---2-----2---|-----2-------2---|
|-----------------|-2---------------||o-3---------------|-0---------------|
|-3---------------|-----------------||------------------|-----------------|
               cause dogs are just like me     you can...Anytime you     
                                                          Everything   you 
  G                 Em
  E E E E E E E E   E E E E E E E E
|-----------------|------------------||-|
|---------0-------|---------0-------o||-|
|-----0-----0---0-|-----0-----0---0--||-|
|---0---0-----0---|---2---2-----2----||-|  Repeat refrain:
|-----------------|-2---------------o||-|
|-3---------------|------------------||-|
  want to    cause  like you

    E E E E E E E E   E E E E E E E E  3x
||------------------|------------------||---|
||o---------1-------|---------0-------o||---|
||------0-----0---0-|---2---2---2---2--||---|
||----2---2-----2---|-----2-------2----||---|
||o-3---------------|-0---------------o||---|
||------------------|------------------||---|
No one but you can call me baby
No one but you can call me ugly
You can call me anything you want to
 
  E E E E E E E E
|-----------------|  
|---------0-------|
|-----0-----0---0-|  
|---2---2-----2---| 
|-2---------------|
|-----------------|
  E E E E E E E E
|-----------------|
|-----0-----------|
|---------0-------|   Repeat and end:
|---4-------4---4-|
|-------2-----2---|
|-0---------------|
               




Duration Legend
---------------
W - whole; H - half; Q - quarter; E - 8th; S - 16th; T - 32nd; X - 64th; a - acciaccatura
+ - note tied to previous; . - note dotted; .. - note double dotted
Uncapitalized letters represent notes that are staccato (1/2 duration)
Irregular groupings are notated above the duration line
Duration letters will always appear directly above the note/fret number it represents the
duration for.  Duration letters with no fret number below them represent rests.  Multi-
bar rests are notated in the form Wxn, where n is the number of bars to rest for.  Low
melody durations appear below the staff

Tablature Legend
----------------
 h   - hammer-on
 p   - pull-off
 b   - bend
 pb  - pre-bend
 r   - bend release (if no number after the r, then release immediately)
 /\  - slide into or out of (from/to "nowhere")
 s   - legato slide
 S   - shift slide
 - natural harmonic
[n]  - artificial harmonic
n(n) - tapped harmonic
 ~   - vibrato
 tr  - trill
 T   - tap
 TP  - trem. picking
 PM  - palm muting
\n/  - tremolo bar dip; n = amount to dip
 \n  - tremolo bar down
 n/  - tremolo bar up
/n\  - tremolo bar inverted dip
 =   - hold bend; also acts as connecting device for hammers/pulls
 <> - volume swell (louder/softer)
 x   - on rhythm slash represents muted slash
 o   - on rhythm slash represents single note slash

Misc Legend
-----------
 |  - bar
||  - double bar
||o - repeat start
o|| - repeat end
*|  - double bar (ending)
 :  - bar (freetime)
 $  - Segno
 &  - Coda
Tempo markers -  = BPM(8/16=s8/s16), where s8 = swing 8ths, s16 = swing 16ths

** Generated using Power Tab Editor by Brad Larsen: The Official Power Tab Web Site
Tap to rate this tab
 
# A B C D E F G H I J K L M N O P Q R S T U V W X Y Z