Song name
# A B C D E F G H I J K L M N O P Q R S T U V W X Y Z

Weeping Willows - Somewhere tab

Intro:

|-------------|---------------|---------------|-----------------|
|-------------|---------------|---------------|-----------------|
|-4-----4-----|--4------4-----|--4------4-----|--4------4-------|
|-6--6--6--6--|--6---6--6--6--|--6---6--6--6--|--6---6--6--6----|
|-------------|---------------|---------------|-----------------|
|----4-----4--|-(4)--4-----4--|-(4)--4-----4--|-(4)--4-----4----|

Verse:
  C#m          C#m/B          C#m/E        C#m/D#  
|-------0-----|-------0-----|-------0-----|-------0-----|
|----------2--|----------2--|----------2--|----------2--|
|----1--------|----1--------|----1--------|----1--------|
|-------------|-------------|-2-----------|-1-----------|
|-4-----------|-2-----------|-------------|-------------|
|-------------|-------------|-------------|-------------|
   I long for   us to        meet                     but
  A                          G#
|-------------|-2-----0-----|-------------|---------------|
|-------2-----|----------2--|-------------|-4-------------|
|----2-----2--|----2--------|-------5-----|-------5-------|
|-------------|-------------|----6-----6--|----6-----6----|
|-0-----------|-------------|-------------|---------------|
|-------------|-------------|-4-----------|---------------|
  I                  I don't.. where
  C#m          C#m/B         C#m/E         C#m/D#                 
|-------4-----|-------4-----|-------4-----|-------4-----|
|----------0--|----------0--|----------0--|----------0--|
|----1--------|----1--------|----1--------|----1--------|
|-------------|-------------|-2-----------|-1-----------|
|-4-----------|-2-----------|-------------|-------------|
|-------------|-------------|-------------|-------------|
       Ill just wait and     see                  until
  A                          G#
|-------2-----|-0-----------|-------------|-4----|
|-------------|-------2-----|-------------|------|
|----2-----2--|----2-----2--|-------5-----|------|
|-------------|-------------|----6-----6--|------|
|-0-----------|-------------|-------------|------|
|-------------|-------------|-4-----------|------|
  love              comes over here

Bridge:
 A                           G# 
|-------------|-------------|-------------|-------------|
|-------------|-2-----------|-------------|-4-----------|
|-------2-----|-------2-----|-------5-----|-------5-----|
|----2-----2--|----2-----2--|----6-----6--|----6-----6--|
|-0-----------|-------------|-------------|-------------|
|-------------|-------------|-4-----------|-------------|
               It lies     hidden 
 A                           G#
|-------------|-2-----------|-------------|-4----|
|-------------|-------2-----|-------------|------|
|-------2-----|-------------|-------5-----|------|
|----2-----2--|----2-----2--|----6-----6--|------|
|-0-----------|-------------|-------------|------|
|-------------|-------------|-4-----------|------|
               There's no   sign                   but

Ref:
  C#m              B             A               B
||----------------|-------------|-------0h2-----|-------------|
||o-------5h7-----|-------4-----|---------------|-------4-----|
||----------------|-------------|---------------|-------------|
||-----6-------6--|----4-----4--|----2-------2--|----4-----4--|
||o-4-------------|-2-----------|-0-------------|-2-----------|
||----------------|-------------|---------------|-------------|
    Some...........where          someone        dreams 
    Some...........where          there's a     place     
 A               B             E             G#
|-------0h2-----|-------------|-------------|----------------||
|---------------|-------4-----|-------0-----|-------4-------o||
|---------------|-------------|----------1--|----------4-----|| 2x
|----2-------2--|----4-----4--|----2--------|----6-----------||
|-0-------------|-2-----------|-------------|---------------o||
|---------------|-------------|-0-----------|-4--------------||
 someone         dreams     of  me
 somewhere       there is    love       for  me
 C#m           B             E             G#m
|-------------|-------------|-------------|-------------|
|-------5-----|-------4-----|-------0-----|-------4-----|
|----------6--|----------4--|----------1--|----------4--|
|----6--------|----4--------|----2--------|----6--------|
|-4-----------|-2-----------|-------------|-------------|
|-------------|-------------|-0-----------|-4-----------|
 somewhre      ther's a      heart that    beats     for

|-------------|---------------|---------------|-----------------|
|-------------|---------------|---------------|-----------------|
|-4-----4-----|--4------4-----|--4------4-----|--4------4-------|
|-6--6--6--6--|--6---6--6--6--|--6---6--6--6--|--6---6--6--6----|
|-------------|---------------|---------------|-----------------|
|----4-----4--|-(4)--4-----4--|-(4)--4-----4--|-(4)--4-----4----|
 me

Verse:
 C#m           C#m/B         C#m/E         C#m/D#
|-------0-----|-------0-----|-------0-----|-------0-----|
|----------2--|----------2--|----------2--|----------2--|
|----1--------|----1--------|----1--------|----1--------|
|-------------|-------------|-2-----------|-1-----------|
|-4-----------|-2-----------|-------------|-------------|
|-------------|-------------|-------------|-------------|
   I long for   us to        meet                     but
 A                           G#
|-------------|-2-----0-----|-------------|---------------|
|-------2-----|----------2--|-------------|-4-------------|
|----2-----2--|----2--------|-------5-----|-------5-------|
|-------------|-------------|----6-----6--|----6-----6----|
|-0-----------|-------------|-------------|---------------|
|-------------|-------------|-4-----------|---------------|
  I                  I don't.. when
 C#m           C#m/B         C#m/B         C#m/D#
|-------4-----|-------4-----|-------4-----|-------4-----|
|----------0--|----------0--|----------0--|----------0--|
|----1--------|----1--------|----1--------|----1--------|
|-------------|-------------|-2-----------|-1-----------|
|-4-----------|-2-----------|-------------|-------------|
|-------------|-------------|-------------|-------------|
       I don't  where to     seek                  all I
 A                           G#      
|-------2-----|-0-----------|-------------|-4----|
|-------------|-------2-----|-------------|------|
|----2-----2--|----2-----2--|-------5-----|------|
|-------------|-------------|----6-----6--|------|
|-0-----------|-------------|-------------|------|
|-------------|-------------|-4-----------|------|
  know               is what i need

Bridge:
 A                           G#
|-------------|-------------|-------------|-------------|
|-------------|-2-----------|-------------|-4-----------|
|-------2-----|-------2-----|-------5-----|-------5-----|
|----2-----2--|----2-----2--|----6-----6--|----6-----6--|
|-0-----------|-------------|-------------|-------------|
|-------------|-------------|-4-----------|-------------|
               It lies     hidden 
 A                           G#
|-------------|-2-----------|-------------|-4----|
|-------------|-------2-----|-------------|------|
|-------2-----|-------------|-------5-----|------|
|----2-----2--|----2-----2--|----6-----6--|------|
|-0-----------|-------------|-------------|------|
|-------------|-------------|-4-----------|------|
               There's no   sign                   but

Ref:
  C#m              B             A               B                           
||----------------|-------------|-------0h2-----|-------------|
||o-------5h7-----|-------4-----|---------------|-------4-----|
||----------------|-------------|---------------|-------------|
||-----6-------6--|----4-----4--|----2-------2--|----4-----4--|
||o-4-------------|-2-----------|-0-------------|-2-----------|
||----------------|-------------|---------------|-------------|
    Some...........where          someone        dreams 
    Some...........where          there's a     place     
 A               B             E             G#m
|-------0h2-----|-------------|-------------|----------------||
|---------------|-------4-----|-------0-----|-------4-------o||
|---------------|-------------|----------1--|----------4-----||
|----2-------2--|----4-----4--|----2--------|----6-----------||
|-0-------------|-2-----------|-------------|---------------o||
|---------------|-------------|-0-----------|-4--------------||
 someone         dreams     of  me
 somewhere       there is    love       for  me
C#m            B             E             G#m
|-------------|-------------|-------------|-------------|
|-------5-----|-------4-----|-------0-----|-------4-----|
|----------6--|----------4--|----------1--|----------4--|
|----6--------|----4--------|----2--------|----6--------|
|-4-----------|-2-----------|-------------|-------------|
|-------------|-------------|-0-----------|-4-----------|
 somewhere      there's a      heart that    beats     for

Solo:
   C#m             B            A               B                                                            
||----------------|-2-----2----|-------0h2-----|-2-----2-----||
||o-------5h7-----|------------|---------------|------------o||
||----------------|------------|---------------|-------------||
||-----6----------|----4-------|----2----------|----4--------|| 3x
||o-4-------------|-2----------|-0-------------|-2----------o||
||----------------|------------|---------------|-------------||
  me

ref/outro

||-------------|---------------|---------------|-----------------|
||o------------|---------------|---------------|-----------------|
||-4-----4-----|--4------4-----|--4------4-----|--4------4-------|
||-6--6--6--6--|--6---6--6--6--|--6---6--6--6--|--6---6--6--6----|
||o------------|---------------|---------------|-----------------|
||----4-----4--|-(4)--4-----4--|-(4)--4-----4--|-(4)--4-----4----|
  Some...........where          someone          dreams 
  Some...........where          there's a        place     
|-------------|---------------|---------------|-----------------||
|-------------|---------------|---------------|----------------o||
|-4-----4-----|--4------4-----|--4------4-----|--4------4-------||
|-6--6--6--6--|--6---6--6--6--|--6---6--6--6--|--6---6--6--6----||
|-------------|---------------|---------------|----------------o||
|----4-----4--|-(4)--4-----4--|-(4)--4-----4--|-(4)--4-----4----||
  someone        dreams    of    me
 somewhere       there is        love       for  me

|-------------|---------------|---------------|-----------------|
|-------------|---------------|---------------|-----------------|
|-4-----4-----|--4------4-----|--4------4-----|--4------4-------|
|-6--6--6--6--|--6---6--6--6--|--6---6--6--6--|--6---6--6--6----|
|-------------|---------------|---------------|-----------------|
|----4-----4--|-(4)--4-----4--|-(4)--4-----4--|-(4)--4-----4----|
  somewhere      there's a      heart that    beats     for

me
Tap to rate this tab
# A B C D E F G H I J K L M N O P Q R S T U V W X Y Z