Song name
# A B C D E F G H I J K L M N O P Q R S T U V W X Y Z

Weerd Science - In A City With No Name tab

Help us improve GuitareTab! Take a short survey!
-------------------------------------------------------------------------------
		IN A CITY WITH NO NAME - Weerd Science
-------------------------------------------------------------------------------
Tabbed by:Rafa88offspring
Email:rafa88offspring@hotmail.com

Tuning:Standard (EADgbe)

Another great WS song :)

Keep playing this throughout the song
e|------------------|
B|------------------|
G|-------5-------4--|
D|-7-777---55555----|
A|------------------|
E|------------------|

e|----------------------|
B|----------------------|
G|-------5-------4------|
D|-7-777---55555---3-3--|
A|----------------------|
E|----------------------|

| /  slide up
| \  slide down
| h  hammer-on
| p  pull-off
| ~  vibrato
| +  harmonic
| x  Mute note
===============================================================================
Related for In A City With No Name tab