Song name
# A B C D E F G H I J K L M N O P Q R S T U V W X Y Z

Weerd Science - The Clap tab

-------------------------------------------------------------------------------
			THE CLAP - Weerd Science
-------------------------------------------------------------------------------
Tabbed by:Rafa88offspring	
Email:rafa88offspring@hotmail.com

Tuning:Standard (EADgbe)

I was just seeing an awesome video of them playing the song live and I 
wanted to tab it out :) 

here's the video by the way:
http://vimeo.com/5800943 

Main Riff
e|---------------------|
B|---------------------|
G|---------------------|
D|-55------------------|
A|-77-------7p5-55-55--|
E|----77777-----00-00--|

e|---------------------|
B|---------------------|
G|---------------------|
D|-55------------------|
A|-77-------7p5-55555--|
E|----77777------------|

Keyboard part
e|-------------10h12--|
B|-12----10-----------|
G|----12----11--------|
D|--------------------|
A|--------------------|
E|--------------------|

| /  slide up
| \  slide down
| h  hammer-on
| p  pull-off
| ~  vibrato
| +  harmonic
| x  Mute note
===============================================================================
Tap to rate this tab
# A B C D E F G H I J K L M N O P Q R S T U V W X Y Z