Guitaretab - guitar tabs
Song name
# A B C D E F G H I J K L M N O P Q R S T U V W X Y Z

Weezer - Come To My Pod tab

-------------------------------------------------------------------------------
			     Come To My Pod - Weezer
-------------------------------------------------------------------------------
Tabbed by:TheDevil
Email:thedevil123456789@hotmail.com
Ok, so heres a weird little tune from the Song From The Black
Hole era. not sure if it's 100% correct, but I'd say it'd be
about 90-95% right.
Tuning:Standard H-step down (like all the SFTBH)
  come into my pod      theres none there will be alone  we can talk
e|---------------------------------------------------------------------------|
B|---------------------------------------------------------------------------|
G|-------------7---777---------7----7----------------------------------------|
D|-------------7---777---------7----7--------------7-----7------7-------222--|
A|-------------5---555---------5----5--------------7-----7------7-------222--|
E|----------------------------------------------3-45-----5------5-------000--l
  and if you want to we'll sniff glue. and relax,   have fun,      
e|------------------------------------------------------------1/2----2-------|
B|------------------------------------------------------------2/3(x2)3-------|
G|-------------------------6-----7---------------777----------1/2----2-------|
D|2-----2---------2--7-----6-----7---------------777-------------------------|
A|2-----2---------2--7-----4-----5---------------555-------------------------|
E|0-----0---------0--5-------------------------------------------------------|
  in my pod...
e|---------------------------------------------------------------------------|
B|---------------------------------------------------------------------------|
G|--------7------------------------------------------------------------------|
D|-------7-------------------------------------------------------------------|
A|------5--------------------------------------------------------------------|
E|---------------------------------------------------------------------------|

and that's pretty much it.Repeat that again and you got it!                 
if anythings wrong, just listen
to the song and use this tab as a base, and you should have
no problem figuring it out. I was just to lazy to get the 
song out to make sure EXACTLY where the chords are played,
but this should be pretty damn close. enjoy! =w=
[ Tab from: http://www.guitaretab.com/w/weezer/103588.html ]
Related for Come To My Pod tab
×
Come To My Pod