Song name
# A B C D E F G H I J K L M N O P Q R S T U V W X Y Z

Weezer - The Angel And The One tab

----------------------------------------------------------------------------
                    The Angel and the One by Weezer
                Tabbed by Chris, wceleazpetron@yahoo.com
----------------------------------------------------------------------------

This is my first tab, but I'm sure it's 100% correct.
Hope you enjoy! =w=

Tuning: Half-Step Down. Eb Ab Db Gb Bb eb


  Chords w/ rhythm 1: (Let ring)
e|-------------------------------------------------------------------------|
B|-------------------(3)---------------------------------------------------|
G|--------------------2----------------------------------------------------|
D|----------7----7----3----3--3--------------------------------------------|
A|3----3----5----3----1----1--0--5--7--------------------------------------|
E|1----0-------------------------3--5--------------------------------------|

  Riff:
*The riff is played in steady 8th notes, until the singing breaks. I grouped them into 
for convenience.
      I feel a deeper peace...
e|55555555|55555555|55555555|55555555|5-55-55-55|8-88-888-5----------------|
B|66666666|66666666|66666666|66666666|6-66-66-66|6-66-666-6----------------|
G|-------------------------------------------------------------------------|
D|-------------------------------------------------------------------------|
A|-------------------------------------------------------------------------|
E|-------------------------------------------------------------------------|

  Chords w/ rhythm 2: (Quarter notes)
    I'm flyin' up so high...
e|-------------------------------------------------------------------------|
B|-------------------------------------------------------------------------|
G|--------------------22222222---------------------------------------------|
D|----------7777-7777-33333333-33-33---------------------------------------|
A|3333-3333-5555-3333-11111111-11-00-55-77---------------------------------|
E|1111-0000--------------------------33-55---------------------------------|

  Chords w/ rhythm 3: (Let second ring)
    I'll take you there, my friend...
e|---------------------------------------------------------------------------|
B|---------------------------------------------------------------------------|
G|----------------22---------------------------------------------------------|
D|--------77--77--33------3-3------------------------------------------------|
A|33--33--55--33--11------1-0-5-7--------------------------------------------|
E|11--00----------------------3-5--------------------------------------------|

*At "Peace, shalom..." the chords return to rhythm 2

  Solo:
  Woo-o-hoo...
e|-------------------------------------------------------------------------|
B|15s13-13~~~~~~~15s13-13~~~11s10~~~~s10-88-6-8~~~~-s10-88-6-8~~~----------|
G|-------------------------------------------------------------------------|
D|-------------------------------------------------------------------------|
A|-------------------------------------------------------------------------|
E|-------------------------------------------------------------------------|
  Ending:
e|13~~~~~~~~~~~~~~~~-------------------------------------------------------|
B|------------------10~~~~~~~~~~~~~~~~-------------------------------------|
G|-------------------------------------------------------------------------|
D|-------------------------------------------------------------------------|
A|-------------------------------------------------------------------------|
E|-------------------------------------------------------------------------|

Then feedback...
Tap to rate this tab
# A B C D E F G H I J K L M N O P Q R S T U V W X Y Z