Song name
# A B C D E F G H I J K L M N O P Q R S T U V W X Y Z

Weezer - Heart Songs tab

Haiyyo. Just figured this out, and it sounds right when played against the album
Please let me know if anyone finds any problems.

Side note: I finger-pick, so playing the first two chords may be a problem for some
who do not; however, I have discovered that the open Gb can also be played on the 4th string
fret, which will be hard for people with small hands.

Tuning: Eb, Bb, Gb, Db, Ab, Eb.

Main progression (used in verse and chorus)

(Clean tone)
|----------|----------|
|----------|-3--------|
|-0--0-----|-4--0-----|
|----------|-4--2-----|
|-7--9-----|-2--2-----|
|-8--10----|----0-----|

Bridge

(Light distortion, palm-muted)
|-----------------|-----------------|-----------------|-----------------|
|-----------------|-----------------|-----------------|-----------------|
|-----------------|-----------------|-----------------|-----------------|
|-----------------|-----------------|-----------------|-----------------|
|-2-2-2-2-2-2-2-2-|-5-5-5-5-5-5-5-5-|-7-7-7-7-7-7-7-7-|-9-9-9-9-9-9-9-9-|
|-0-0-0-0-0-0-0-0-|-3-3-3-3-3-3-3-3-|-5-5-5-5-5-5-5-5-|-7-7-7-7-7-7-7-7-|

|-----------------|-----------------|-----------------|-----------------|
|-----------------|-----------------|-----------------|-----------------|
|-----------------|-----------------|-----------------|-----------------|
|-----------------|-----------------|-----------------|-----------------|
|-2-2-2-2-2-2-2-2-|-5-5-5-5-5-5-5-5-|-7-7-7-7-7-7-7-7-|-9-9-9-9-9-9-9-9-|
|-0-0-0-0-0-0-0-0-|-3-3-3-3-3-3-3-3-|-5-5-5-5-5-5-5-5-|-7-7-7-7-7-7-7-7-|

(Muting now alternates in a 1-2-3-4--------------------------------------| pattern with 
the 3rd beat not muted)
|-----------------|-----------------|-----------------|------------------|
|-----------------|-----------------|-----------------|------------------|
|-----------------|-----------------|-----------------|------------------|
|-----------------|-----------------|-----------------|------------------|
|-2-2-2-2-2-2-2-2-|-5-5-5-5-5-5-5-5-|-7-7-7-7-7-7-7-7-|-9-9-9-9-9-9-9-9--|
|-0-0-0-0-0-0-0-0-|-3-3-3-3-3-3-3-3-|-5-5-5-5-5-5-5-5-|-7-7-7-7-7-7-7-7--|

                                                                                   
stops)
|-0-0-0-0-0-0-0-0-|-3-3-3-3-3-3-3-3-|-0-0-0-0-0-0-0-0-|-2-2-2-2-2-2-2-2-|
|-0-0-0-0-0-0-0-0-|-0-0-0-0-0-0-0-0-|-2-2-2-2-2-2-2-2-|-4-4-4-4-4-4-4-4-|
|-0-0-0-0-0-0-0-0-|-0-0-0-0-0-0-0-0-|-2-2-2-2-2-2-2-2-|-4-4-4-4-4-4-4-4-|
|-2-2-2-2-2-2-2-2-|-0-0-0-0-0-0-0-0-|-2-2-2-2-2-2-2-2-|-4-4-4-4-4-4-4-4-|
|-2-2-2-2-2-2-2-2-|-2-2-2-2-2-2-2-2-|-0-0-0-0-0-0-0-0-|-2-2-2-2-2-2-2-2-|
|-0-0-0-0-0-0-0-0-|-3-3-3-3-3-3-3-3-|-----------------|-----------------|

(muting stops altogether, distortion is at player's discretion)
|-------------------------|-----------------|
|-------------------------|-----------------|
|-------------------------|-----------------|
|-------------------------|-----------------|
|-10-10-10-12-12-12-12-12-|-9-9-9-2-2-2-2-2-|
|--8--8--8-10-10-10-10-10-|-7-7-7-0-0-0-0-0-|

|-------------------------|-----------------|
|-------------------------|-----------------|
|-------------------------|-----------------|
|-------------------------|-----------------|
|-10-10-10-12-12-12-12-12-|-9-9-9-2-2-2-2-2-|
|--8--8--8-10-10-10-10-10-|-7-7-7-0-0-0-0-0-|

|-------------------------|-----------------|
|-------------------------|-----------------|
|-------------------------|-----------------|
|-------------------------|-----------------|
|-10-10-10-12-12-12-12-12-|-9-9-9-2-2-2-2-2-|
|--8--8--8-10-10-10-10-10-|-7-7-7-0-0-0-0-0-|

|----------------|--------------------------|
|----------------|--------------------------|
|----------------|--------------------------|
|----------------|--------------------------|
|-10--12---------|-9--2---------------------|
|--8--10---------|-7--0---------------------|

Cheers, everybody! Any problems, just comment.
Tap to rate this tab
# A B C D E F G H I J K L M N O P Q R S T U V W X Y Z