Song name
# A B C D E F G H I J K L M N O P Q R S T U V W X Y Z

Weezer - Everybody Get Dangerous tab

Song: Everybody Get Dangerous
Band:  Weezer
Album:  Weezer (The Red Album)
Transcribed By:  Jeff Martin
Tuning:  EbAbDbGbBbEb

My interpretation....


x = Pick Scrape
() = Optional Note

Intro:

Eb|----------------------(7)----|----------------------(7)----|
Bb|-----------------------7-----|-----------------------7-----|
Gb|-----------------------7-----|-----------------------7-----|
Db|---xx---xx---x---x---x-7-----|---xx---xx---x---x---x-7-----|
Ab|-9-xx-9-xx-9-x-9-x-9-x-0-----|-9-xx-9-xx-9-x-9-x-9-x-0-----|
Eb|-7-xx-7-xx-7-x-7-x-7-x-------|-7-xx-7-xx-7-x-7-x-7-x-------|

Eb|---------------------(07)----|---------------------(07)----|
Bb|-------------10-10-10-07-09--|-------------10-10-10-07-09--|
Gb|-------------09-09-09-07-09--|-------------09-09-09-07-09--|
Db|---xx---xx---09-09-09-07-09--|---xx---xx---09-09-09-07-09--|
Ab|-9-xx-9-xx-9-----------------|-9-xx-9-xx-9-----------------|
Eb|-7-xx-7-xx-7-----------------|-7-xx-7-xx-7-----------------|

Verse 1:

Eb|----------------------(7)----|----------------------(7)----|
Bb|-----------------------7-----|-----------------------7-----|
Gb|-----------------------7-----|-----------------------7-----|
Db|---xx---xx---x---x---x-7-----|---xx---xx---x---x---x-7-----|
Ab|-9-xx-9-xx-9-x-9-x-9-x-0-----|-9-xx-9-xx-9-x-9-x-9-x-0-----|
Eb|-7-xx-7-xx-7-x-7-x-7-x-------|-7-xx-7-xx-7-x-7-x-7-x-------|

Eb|---------------------(07)----|---------------------(07)----|
Bb|-------------10-10-10-07-09--|-------------10-10-10-07-09--|
Gb|-------------09-09-09-07-09--|-------------09-09-09-07-09--|
Db|---xx---xx---09-09-09-07-09--|---xx---xx---09-09-09-07-09--|
Ab|-9-xx-9-xx-9-----------------|-9-xx-9-xx-9-----------------|
Eb|-7-xx-7-xx-7-----------------|-7-xx-7-xx-7-----------------|

Eb|----------------------(7)----|----------------------(7)----|
Bb|-----------------------7-----|-----------------------7-----|
Gb|-----------------------7-----|-----------------------7-----|
Db|---xx---xx---x---x---x-7-----|---xx---xx---x---x---x-7-----|
Ab|-9-xx-9-xx-9-x-9-x-9-x-0-----|-9-xx-9-xx-9-x-9-x-9-x-0-----|
Eb|-7-xx-7-xx-7-x-7-x-7-x-------|-7-xx-7-xx-7-x-7-x-7-x-------|

Eb|---------------------(07)----|-7-9-------------------------|
Bb|-------------10-10-10-07-09--|-7-9-------------------------|
Gb|-------------09-09-09-07-09--|-7-9-------------------------|
Db|---xx---xx---09-09-09-07-09--|-7-9-------------------------|
Ab|-9-xx-9-xx-9-----------------|-----------------------------|
Eb|-7-xx-7-xx-7-----------------|-----------------------------|

PAUSE

Eb|------------------(07)-------|------------------(07)-------|
Bb|-------------10-09-07-09-----|-------------10-09-07-09-----|
Gb|-------------09-09-07-09-----|-------------09-09-07-09-----|
Db|---xx---xx---09-09-07-09-----|---xx---xx---09-09-07-09-----|
Ab|-9-xx-9-xx-9-----------------|-9-xx-9-xx-9-----------------|
Eb|-7-xx-7-xx-7-----------------|-7-xx-7-xx-7-----------------|

Eb|------------------(07)-------|----------------------(7)----|
Bb|-------------10-09-07-09-----|-----------------------7-----|
Gb|-------------09-09-07-09-----|-----------------------7-----|
Db|---xx---xx---09-09-07-09-----|---xx---xx---x---x---x-7-----|
Ab|-9-xx-9-xx-9-----------------|-9-xx-9-xx-9-x-9-x-9-x-0-----|
Eb|-7-xx-7-xx-7-----------------|-7-xx-7-xx-7-x-7-x-7-x-------|

Eb|----------------------(7)----|----------------------(7)----|
Bb|-----------------------7-----|-----------------------7-----|
Gb|-----------------------7-----|-----------------------7-----|
Db|---xx---xx---x---x---x-7-----|---xx---xx---x---x---x-7-----|
Ab|-9-xx-9-xx-9-x-9-x-9-x-0-----|-9-xx-9-xx-9-x-9-x-9-x-0-----|
Eb|-7-xx-7-xx-7-x-7-x-7-x-------|-7-xx-7-xx-7-x-7-x-7-x-------|

Eb|---------------------(07)----|-7-9-------------------------|
Bb|-------------10-10-10-07-09--|-7-9-------------------------|
Gb|-------------09-09-09-07-09--|-7-9-------------------------|
Db|---xx---xx---09-09-09-07-09--|-7-9-------------------------|
Ab|-9-xx-9-xx-9-----------------|-----------------------------|
Eb|-7-xx-7-xx-7-----------------|-----------------------------|

PAUSE

Chorus:
(Repeat 4 Times)                      Finish (omit the A Chord)
Eb|---------------------------------:||-----------------------|
Bb|----------7-7-7-7/9-9------------:||-----------------------|
Gb|-8-8-xxxx-7-7-7-7/9-9-xxxx-6-6-6-:||-xxxxxxxx--------------|
Db|-9-9-xxxx-7-7-7 7/9-9-xxxx-7-7-7-:||-xxxxxxxx--------------|
Ab|-9-9-xxxx-5-5-5-5/7-7-xxxx-7-7-7-:||-xxxxxxxx--------------|
Eb|-7-7-xxxx-------------xxxx-5-5-5-:||-xxxxxxxx--------------|


From here, you can use various progressions, whatever you like)
Verse 2 = Verse 1

Chorus 2 = Chorus 1

Bridge:
(Repeat 2 times)             Fill w/2nd Guitar (If U Like)
Eb|-7---|-7---|-7---|-7---:||-xx-xx-xx-xx---------------------|
Bb|-7-9-|-7-9-|-7-9-|-7-9-:||-xx-xx-xx-xx---------------------|
Gb|-8-9-|-8-9-|-8-9-|-8-9-:||-11-11-11-11---------------------|
Db|-9-9-|-9-9-|-9-9-|-9-9-:||-xx-xx-xx-xx---------------------|
Ab|-9-7-|-9-7-|-9-7-|-9-7-:||-09-09-09-09... etc -------------|
Eb|-7-7-|-7-7-|-7-7-|-7-7-:||-xx-xx-xx-xx---------------------|

PAUSE
(Repeat 3 Times)
Eb|---14--14--14--14--14-|---14--14--14--14--14--14-|
Bb|-12--12--12--12--12---|-11--11--11--11--11--11---|
Gb|----------------------|--------------------------|
Db|----------------------|--------------------------|
Ab|----------------------|--------------------------|
Eb|----------------------|--------------------------|>>>

>>>
Eb|---14--14--14--14--14-|---14--14--14--14--14--14-:||
Bb|----------------------|--------------------------:||
Gb|-13--13--13--13--13---|-11--11--11--11--11--11---:||
Db|----------------------|--------------------------:||
Ab|----------------------|--------------------------:||
Eb|----------------------|--------------------------:||

Chorus:
(Repeat 4 Times)                      Finish (omit the A Chord)
Eb|---------------------------------:||-----------------------|
Bb|----------7-7-7-7/9-9------------:||-----------------------|
Gb|-8-8-xxxx-7-7-7-7/9-9-xxxx-6-6-6-:||-xxxxxxxx--------------|
Db|-9-9-xxxx-7-7-7 7/9-9-xxxx-7-7-7-:||-xxxxxxxx--------------|
Ab|-9-9-xxxx-5-5-5-5/7-7-xxxx-7-7-7-:||-xxxxxxxx--------------|
Eb|-7-7-xxxx-------------xxxx-5-5-5-:||-xxxxxxxx--------------|

Nothin' but Drums from here...

Please submit corrections, TIA
Tap to rate this tab
# A B C D E F G H I J K L M N O P Q R S T U V W X Y Z