Song name
# A B C D E F G H I J K L M N O P Q R S T U V W X Y Z

Weezer - Miss Sweeney tab

                                    _______________________
                                   |                       | 
                                   | MISS SWEENEY - WEEZER |
                                   |_______________________| 

Tabbed by: saladwich
Tuning (All Guitars): Half Step down, then drop the Eb to Db


VERSE

Guitar 1 (Acoustic)
0:15 - 0:54

eb|--0--0-0-0-0--0---0--|
Bb|--2--2-2-2-3--3/5-3--|
Gb|--2--2-2-2-2--2/4-2--| (x8)
Db|--2--2-2-2-0--0---0--|
Ab|---------------------|
Db|---------------------|


Guitar 2 (Clean or lightly distorted)
0:34 - 0:54
              (0:40)             (0:45)
eb|-------------------------------5h7p5h7p5h7p5--------------------|
Bb|------------5h6p5h6p5h6p5------------------------5h6p5h6p5h6p5--|
Gb|----------------------------------------------------------------|
Db|--7~-----------------------7~-----------------------------------|
Ab|--7~-----------------------7~-----------------------------------|
Db|--7~-----------------------7~-----------------------------------|


BRIDGE

Guitar 1 (Acoustic)
0:54 - 1:05

eb|-----------------------0~-0~-0~--|
Bb|---------0--0-0--------0~-0~-0~--|
Gb|---------4--4-4--------0~-0~-0~--|
Db|--4--4-4-4--4-4-4--4-4-2~-2~-2~--|
Ab|--4--4-4-2--2-2-4--4-4-2~-2~-2~--|
Db|--4--4-4--------4--4-4-2~-2~-2~--|


CHORUS

Guitar 1 and 2 (Distorted)
1:05 - 1:22

eb|------------------------------------------|
Bb|------------------------------------------|
Gb|--------------------------------4~-4~-----|
Db|--7~-7~-0~-0~-7~-7~-0~-0~-7~-4~-4~-4~-2~--|
Ab|--7~-7~-0~-0~-7~-7~-0~-0~-7~-4~-2~-2~-2~--|
Db|--7~-7~-0~-0~-7~-7~-0~-0~-7~-4~-------2~--|

Guitar 3 (Little Fillings, Clean)

    (1:11)     (1:19)
eb|--------------------|
Bb|--10-9-7~-----------|
Gb|-----------6br--4~--|
Db|--------------------|
Ab|--------------------|
Db|--------------------|


VERSE (again)

CHORUS (again)


INTERLUDE

Guitar 1 and 2


eb|------------------|      eb|------------------------------------------------|
Bb|------------------|      Bb|------------------------------------------------|
Gb|----------7-7-7-7-| (x4) Gb|----------4-4-4-4-------------------------------|
Db|--7-7-7-7-7-7-7-7-|      Db|--4-4-4-4-4-4-4-4-4-4-4-4-2-2-2-2~-222222222222-|
Ab|--7-7-7-7-5-5-5-5-|      Ab|--4-4-4-4-2-2-2-2-4-4-4-4-2-2-2-2~-222222222222-|
Db|--7-7-7-7---------|      Db|--4-4-4-4---------4-4-4-4-2-2-2-2~-222222222222-|

CHORUS (x2)

End with verse (Guitar 1)


This song is pretty easy to learn, and even though there's 3 guitars in it,
 it can be pulled off with only 2.  There are other effects in there too,
 things like feedback and scratching over the strings, but this is more or 
less everything.  This song is amazing and is extremely fun to play. Best of 
luck. <3333
Tap to rate this tab
 
# A B C D E F G H I J K L M N O P Q R S T U V W X Y Z