Song name
# A B C D E F G H I J K L M N O P Q R S T U V W X Y Z

Weezer - Cold Dark World tab

-------------------------------------------------------------------------------
			     Cold dark world - Weezer
-------------------------------------------------------------------------------
Tabbed by: Joker 863
Tuning: standard
 Intro/Verse
e|---------------------------------------------------------------------------|
B|---------------------------------------------------------------------------|
G|---------------------------------------------------------------------------|
D|--9-9-9-9-9-9-9-9-9-9-9-9-9-9-9-9-9-9-9-9-9-9-9-9-9-9-9-9-9-9-9-9----------|
A|-7-7-7-7-7-7-7-7-7-7-7-7-7-7-7-7-5-5-5-5-5-5-5-5---------------------------|
E|-------------------------------------------------7-7-7-7-7-7-7-7-----------|
  Chorus
e|---------------------------------------------------------------------------|
B|---------------------------------------------------------------------------|
G|-5---4---2---------------5---4-4---2---------------------------------------|
D|-5---4---2---5---4---2---5---4-4---2---5---2-------------------------------|
A|-3---2---0---5---4---2---3---2-2---0---5---2-------------------------------|
E|-------------3---2---0-----------------3---0-------------------------------|
Tap to rate this tab
# A B C D E F G H I J K L M N O P Q R S T U V W X Y Z