Song name
# A B C D E F G H I J K L M N O P Q R S T U V W X Y Z

Weezer - The Greatest Man That Ever Lived tab

#----------------------------------PLEASE NOTE---------------------------------#
#This file is the author's own work and represents their interpretation of the #
#song. You may only use this file for private study, scholarship, or research. #
#------------------------------------------------------------------------------#

THE GREATEST MAN THAT EVER LIVED
As recorded by Weezer
(From the 2008 Album WEEZER (RED ALBUM))

Transcribed by sloppyjoe24


Words by Weezer Music by Rivers Cuomo, Brian Bell, Scott Shriner, Patrick Wilson
Arranged by Weezer

A5
6 8 8 x x x

E/Ab
5 8 7 x x x

D5/A
6 6 8 x x x

E5
1 3 3 x x x
B5/F#
3 3 5 5 x x

C#5/Ab
5 5 7 7 x x

A
6 8 8 7 6 6

E/Ab(type 2)
5 x x 5 6 5
D
x 6 8 8 8 x

E
x 8 10 10 10 x

Bm
8 10 10 8 8 8

G#5
x 0 2 2 x x
F#5
3 5 5 x x x

E5/B
8 8 10 10 x x

Gtr I (D# G# C# F# A# D#) - 'Piano'
Gtr II (D# G# C# F# A# D#) - 'Guitar'
Gtr IV (D# G# C# F# A# D#) - 'Acoustic'
Gtr V (D# G# C# F# A# D#) - 'Muted Guitar'

 Intro
  Q=75
 4/4
  Gtr I
  W          W          W           Q    E   E    E   E   E   E
|----------|----------|----------|-17---17--19---21--17--21--24-|
|----------|----------|----------|---------(17)---------(14)----|
|----------|----------|----------|--------------(14)------------|
|----------|----------|----------|------------------------------|
|----------|----------|----------|------------------------------|
|----------|----------|----------|------------------------------|
                                    Q.       E    Q       Q


    Q         E    E    Q         E    E      Q     Q         Q.             E
|--26--------26---24---21--------19---17--|--19----12--------19-------------19-----|
|------(10)------(10)------(17)------(17)-|------------(12)------------------------|
|-----------(11)----------------(18)------|-------(13)-----------(11)------(11)----|
|-(12)----------------(19)----------------|-(14)----------------------(12)---------|
|-----------------------------------------|-----------------(14)-------------------|
|-----------------------------------------|----------------------------------------|
    E    E    E    E    E    E    E    E      Q     E    E    E    E    E    E


    E    E    E    E    Q         Q           E.  X  X  X  X   E   E   E   E   E   E
|--19---21---19---17---14--------12-------|--17--17h19p17p16--17--19--21--17--21--24-|
|------(12)------(12)------(10)------(10)-|------------------(14)------------(14)----|
|-----------(13)----------------(11)------|-(14)---------------------(13)------------|
|-(14)----------------(12)----------------|------------------------------------------|
|-----------------------------------------|------------------------------------------|
|-----------------------------------------|------------------------------------------|
    E    E    E    E    E    E    E    E      Q                Q       Q       Q


    E    E    E    E    Q         E    E      Q         Q         Q       Q          W
|--26---28---26---24---21--------19---17--|--19--------24--------21------19------|--17---------------------------------------|
|------(10)------(10)------(17)------(17)-|------(12)------(12)------(9)-----(9)-|------(10)-------(10)-(10)-(10)------(10)--|
|-----------(11)----------------(18)------|-----------(13)---------------(9)-----|-----------(11)-----------------(11)-------|
|-(12)----------------(19)----------------|-(14)----------------(11)-------------|-(12)--------------------------------------|
|-----------------------------------------|--------------------------------------|-------------------------------------------|
|-----------------------------------------|--------------------------------------|-------------------------------------------|
    E    E    E    E    E    E    E    E      E    E    E    E    E   E   E   E      E   
E    E     E    E    E    E    E


 Sirens
  Wx4
|--------|
|--------|
|--------|
|--------|
|--------|
|--------|


  Gtr I
   E   E  E   E    E   E   E   E     E.        S   E   E    Q         E    E
|-17-----17--19---21--17--21--24-|--26--------29--26--24---21--------19---17--|
|-----17----(17)---------(14)----|------(10)---------(10)------(17)------(17)-|
|----------------(14)------------|-----------(11)-------------------(18)------|
|--------------------------------|-(12)-------------------(19)----------------|
|--------------------------------|--------------------------------------------|
|--------------------------------|--------------------------------------------|
   Q.         E    Q       Q         E    E    E       E    E    E    E    E


    Q         Q         Q       E   S   S     H                   H
|--19--------24--------21------19--21--19-|--17------------------17------------------|
|------(12)------(12)------(9)-----(9)----|------(10)------(10)------(10)------(10)--|
|-----------(13)---------------(9)--------|-----------(11)----------------(11)-------|
|-(14)----------------(11)----------------|-(12)----------------(12)-----------------|
|-----------------------------------------|------------------------------------------|
|-----------------------------------------|------------------------------------------|
    E    E    E    E    E   E   E   E         E    E    E    E    E    E    E    E


 I'm The Baddest
  A5       E/Ab       D5/A     A5
  Gtr II
  PM|      PM|        PM|      PM|   PM|
  s s E Q  s s E Q    s s E Q  s s E s s E
|-------------------|----------------------|
|-------------------|----------------------|
|-------------------|----------------------|
|-----7--------7----|-----7--------7-----7-|
|-7-7-7----7-7-7----|-5-5-5----7-7-7-7-7-7-|
|-5-5-5----4-4-4----|-5-5-5----5-5-5-5-5-5-|


  E5       B5/F#            E5       D5/A
  PM|       PM              PM|       PM-|        PM-|
  s s E Q   s   s   E  Q    s s E Q   s   s   E   s   s   E
|-------------------------|-----------------------------------|
|-------------------------|-----------------------------------|
|------------------(4)----|------------------(7)---------(7)--|
|-----2----(4)-(4)--4-----|-----2----(7)-(7)--7--(7)-(7)--7---|
|-2-2-2-----2---2---2-----|-2-2-2-----5---5---5---5---5---5---|
|-0-0-0-----2---2---2-----|-0-0-0-----5---5---5---5---5---5---|


  A5       E/Ab       D5/A     A5
  PM|      PM|        PM|      PM|   PM|
  s s E Q  s s E Q    s s E Q  s s E s s E
|-------------------|----------------------|
|-------------------|----------------------|
|-------------------|----------------------|
|-----7--------7----|-----7--------7-----7-|
|-7-7-7----7-7-7----|-5-5-5----7-7-7-7-7-7-|
|-5-5-5----4-4-4----|-5-5-5----5-5-5-5-5-5-|


  E5       C#5/Ab     D5/A     A5
  PM|      PM|        PM|      PM|   PM|
  s s E Q  s s E Q    s s E Q  s s E s s E
|-------------------|-----------------------|
|-------------------|-----------------------|
|-------------------|-----------------------|
|-----2--------6----|-----7--------7-----7--|
|-2-2-2----4-4-4----|-5-5-5----7-7-7-7-7-7--|
|-0-0-0----4-4-4----|-5-5-5----5-5-5-5-5-5--|


   Acoustic
    A           E/Ab(type 2)    D            A
    Gtr IV
    E S S E S S S S S S E S S   Q  S S S S S S E S S S S
||--------5-5-5---------4-4-4-|----------------5-5-5-5-5-|
||o-------5-5-5-5-5-5-5-5-5-5-|----7-7-7-7---5-5-5-5-5-5-|
||--6-6-6-6-6-6-4-4-4-4-4-4-4-|-7--7-7-7-7---6-6-6-6-6-6-|
||--7-7-7-7-7-7-x-x-x-x-x-x-x-|-7--7-7-7-7---7-7-7-7-7-7-|
||o-7-7-7-7-7-7-x-x-x-x-x-x-x-|-5--5-5-5-5---7-7-7-7-7-7-|
||--5-5-5-5-5-5-4-4-4-4-4-4-4-|--------------5-5-5-5-5-5-|


  E               Bm              E             D
  E S S S S S S S S S S S S S S   S S S E S S S S S S E S S S
|-----------------7-7-7-7-7-7-7-|-------------------------------||
|-9-9-9-9-9-9-9---7-7-7-7-7-7-7-|-9-9-9-9-9-9-9-7-7-7-7-7-7-7--o||
|-9-9-9-9-9-9-9---7-7-7-7-7-7-7-|-9-9-9-9-9-9-9-7-7-7-7-7-7-7---||
|-9-9-9-9-9-9-9-----9-9-9-9-9-9-|-9-9-9-9-9-9-9-7-7-7-7-7-7-7---||
|-7-7-7-7-7-7-7-----9-9-9-9-9-9-|-7-7-7-7-7-7-7-5-5-5-5-5-5-5--o||
|-------------------------------|-------------------------------||


 After The Havoc...
  A
  Gtr I
  Q  E E Q  Q     E  E  E E Q.   E   Q  Q  Q.   E   E E E E H
|--------------|-------------------|--------------|-------------|
|-2--2-2-2--2--|--3--3--3-3-2------|-0--0--0----0-|-------------|
|-2--2-4-6--6--|-11-11-11-9-6------|-4--1--4----4-|-4-6-4-2-----|
|-7--7-7-7--7--|--7--7--7-7-7------|-9--6--2----2-|---------4---|
|-4--4-2-0--0--|--5--5--5-5-0------|-7--7--7----7-|-5-5-5-5-5---|
|--------------|-------------------|--------------|-------------|
|
| Gtr IV
| W               W                  W              W
|-5------------|-------------------|--------------|-------------|
|-5------------|-------------------|--------------|-------------|
|-6------------|-------------------|--------------|-------------|
|-7------------|-------------------|--------------|-------------|
|-7------------|-------------------|--------------|-------------|
|-5------------|-------------------|--------------|-------------|


  Q  E E Q  Q     E  E  E E Q.   E   Q  Q  Q  Q    H    H
|--------------|-------------------|-------------|----------|
|-2--2-2-2--2--|--3--3--3-3-2------|-0--5--2--0--|-3----2---|
|-2--2-4-6--6--|-11-11-11-9-6------|-4--4--6--4--|-2----2---|
|-7--7-7-7--7--|--7--7--7-7-7------|-2--2--2--2--|-0----2---|
|-4--4-2-0--0--|--5--5--5-5-0------|-7--7--7--7--|-5----0---|
|--------------|-------------------|-------------|----------|


 Ohhh, Baby...
  A       E/Ab(type D)      A
  Gtr I
  E E E E E E E E   E E E E E E E E
|-5---5---4---4---|-----------------|
|-5---5---5---5---|-7---7---5---5---|
|---6---6---4---4-|-7---7---6---6---|
|-----------------|---7---7---7---7-|
|-----------------|-----------------|
|-----------------|-----------------|
|
| Gtr II
| W                 W
|-----------------|-----------------|
|-----------------|-----------------|
|-----------------|-----------------|
|-----------------|-----------------|
|-----------------|-----------------|
|-----------------|-----------------|


  E       Bm        E       D
  E E E E E E E E   E E E E E   E   E   E
|-----------------|-------------------------|
|-9---9---7---7---|-9---9---7-------7-------|
|-9---9---7---7---|-9---9---7-------7-------|
|---9---9---9---9-|---9---9-----7-------7---|
|-----------------|-------------------------|
|-----------------|-------------------------|
|
| W                 H       S S S S E   S S
|-----------------|-------------------------|
|-----------------|-------------------------|
|-----------------|-------------2h4-4b6r2h4-|
|-----------------|---------2h4-------------|
|-----------------|-------------------------|
|-----------------|-------------------------|


  A       E/Ab      D       A
  E E E E E E E E   E E E E E E E E
|-5---5---4---4---|-----------------|
|-5---5---5---5---|-7---7---5---5---|
|---6---6---4---4-|-7---7---6---6---|
|-----------------|---7---7---7---7-|
|-----------------|-----------------|
|-----------------|-----------------|
|
| >
| W                 W
|-----------------|-----------------|
|-----------------|-----------------|
|-2---------------|-----------------|
|-2---------------|-----------------|
|-0---------------|-----------------|
|-----------------|-----------------|


  E       Bm          D       A
  E E E E E  E E  E   E E E E E   E   E   E
|-------------------|---------5-------5-------|
|-9---9---9----9----|-7---7---5-------5-------|
|-9---9---9----9----|-7---7-------6-------6---|
|---9---9---11---11-|---7---7-----------------|
|-------------------|-------------------------|
|-------------------|-------------------------|
|
| W                   H       S S S S E   S S
|-------------------|-------------------------|
|-------------------|-------------------------|
|-------------------|-------------2h4-4b6r2h4-|
|-------------------|---------2h4-------------|
|-------------------|-------------------------|
|-------------------|-------------------------|


   Faster
    Q=150
    A5                E/Ab
    Gtr II
    E E E E E E E E   E E E E E E E E
||------------------|-----------------|
||o-----------------|-----------------|
||--2-2-2-2-2-2-2-2-|-----------------|
||--2-2-2-2-2-2-2-2-|-6-6-6-6-6-6-6-6-|
||o-0-0-0-0-0-0-0-0-|-7-7-7-7-7-7-7-7-|
||------------------|-4-4-4-4-4-4-4-4-|


  D5/A                              A5
   E   E   E   E   E   E   E   E    E E E E E E E E
|---------------------------------|-----------------|
|---------------------------------|-----------------|
|-(7)-(7)-(7)-(7)-(7)-(7)-(7)-(7)-|-----------------|
|--7---7---7---7---7---7---7---7--|-7-7-7-7-7-7-7-7-|
|--5---5---5---5---5---5---5---5--|-7-7-7-7-7-7-7-7-|
|--5---5---5---5---5---5---5---5--|-5-5-5-5-5-5-5-5-|


  E5                C#5/Ab
  E E E E E E E E    E   E   E   E   E   E   E   E
|-----------------|---------------------------------|
|-----------------|---------------------------------|
|-----------------|-(6)-(6)-(6)-(6)-(6)-(6)-(6)-(6)-|
|-2-2-2-2-2-2-2-2-|--6---6---6---6---6---6---6---6--|
|-2-2-2-2-2-2-2-2-|--4---4---4---4---4---4---4---4--|
|-0-0-0-0-0-0-0-0-|--4---4---4---4---4---4---4---4--|


  D5/A                              A5
   E   E   E   E   E   E   E   E    E E E E E E E E
|---------------------------------|-------------------||
|---------------------------------|------------------o||
|-(7)-(7)-(7)-(7)-(7)-(7)-(7)-(7)-|-------------------||
|--7---7---7---7---7---7---7---7--|-7-7-7-7-7-7-7-7---||
|--5---5---5---5---5---5---5---5--|-7-7-7-7-7-7-7-7--o||
|--5---5---5---5---5---5---5---5--|-5-5-5-5-5-5-5-5---||


 I Can Take On Anybody...
  Q=150(8=s8)
  A5              A5              D5/A                        A5
  PM----------------------------------------------------------------------|
  q  e e q  e e   q  e e q  e e    q    e   e   q    e   e    q  e e q  e e
|---------------|---------------|---------------------------|----------------|
|---------------|---------------|---------------------------|----------------|
|---------------|---------------|-(7)--(7)-(7)-(7)--(7)-(7)-|----------------|
|-7--7-7-7--7-7-|-7--7-7-7--7-7-|--7----7---7---7----7---7--|-7--7-7-7--7-7--|
|-7--7-7-7--7-7-|-7--7-7-7--7-7-|--5----5---5---5----5---5--|-7--7-7-7--7-7--|
|-5--5-5-5--5-5-|-5--5-5-5--5-5-|--5----5---5---5----5---5--|-5--5-5-5--5-5--|


  E5              A5              C#5/Ab          F#5
  PM----------------------------------------------------------|
  q  e e q  e e   q  e e q  e e   q  e e q  e e   q  e e q  e e
|---------------|---------------|---------------|----------------|
|---------------|---------------|---------------|----------------|
|---------------|---------------|---------------|----------------|
|-2--2-2-2--2-2-|-7--7-7-7--7-7-|-6--6-6-6--6-6-|-4--4-4-4--4-4--|
|-2--2-2-2--2-2-|-7--7-7-7--7-7-|-4--4-4-4--4-4-|-4--4-4-4--4-4--|
|-0--0-0-0--0-0-|-5--5-5-5--5-5-|-4--4-4-4--4-4-|-2--2-2-2--2-2--|


    B5/F#                       B5/F#
     PM----------------------------------------------------
     q    e   e   q    e   e     q    e   e   q    e   e
||----------------------------|---------------------------|
||o---------------------------|---------------------------|
||--(4)--(4)-(4)-(4)--(4)-(4)-|-(4)--(4)-(4)-(4)--(4)-(4)-|
||---4----4---4---4----4---4--|--4----4---4---4----4---4--|
||o--2----2---2---2----2---2--|--2----2---2---2----2---2--|
||---2----2---2---2----2---2--|--2----2---2---2----2---2--|


  E5              E5
 -----------------------------|
  q  e e q  e e   q  e e q  e e
|---------------|----------------||
|---------------|---------------o||
|---------------|----------------||
|-2--2-2-2--2-2-|-2--2-2-2--2-2--||
|-2--2-2-2--2-2-|-2--2-2-2--2-2-o||
|-0--0-0-0--0-0-|-0--0-0-0--0-0--||


   Chorus
    Q=125
    A5                E/Ab
    E E E E E E E E   E E E E E E E E
||------------------|-----------------|
||o-----------------|-----------------|
||------------------|-----------------|
||--7-7-7-7-7-7-7-7-|-6-6-6-6-6-6-6-6-|
||o-7-7-7-7-7-7-7-7-|-7-7-7-7-7-7-7-7-|
||--5-5-5-5-5-5-5-5-|-4-4-4-4-4-4-4-4-|
|
|   Gtr V
|   E E E E E E E E   E E E E E E E E
||----5---5---5---5-|---4---4---4---4-|
||o-5---5---5---5---|-5---5---5---5---|
||------------------|-----------------|
||------------------|-----------------|
||o-----------------|-----------------|
||------------------|-----------------|


  D5/A                      A5
   E  E  E  E  E  E  E  E    E E  E E  E E  E E
|-------------------------|---------------------|
|-------------------------|---------------------|
|-------------------------|---------------------|
|--7--7--7--7--7--7--7--7-|--7-7--7-7--7-7--7-7-|
|--5--5--5--5--5--5--5--5-|--7-7--7-7--7-7--7-7-|
|--5--5--5--5--5--5--5--5-|--5-5--5-5--5-5--5-5-|
|
|  E  E  E  E  E  E  E  E    E E  E E  E E  E E
|----10----10----10----10-|----9----9----9----9-|
|-10----10----10----10----|-10---10---10---10---|
|-------------------------|---------------------|
|-------------------------|---------------------|
|-------------------------|---------------------|
|-------------------------|---------------------|


  E5                        C#5/Ab
   E  E  E  E  E  E  E  E   E E E E E E E E
|-------------------------|-----------------|
|-------------------------|-----------------|
|-------------------------|-----------------|
|--2--2--2--2--2--2--2--2-|-6-6-6-6-6-6-6-6-|
|--2--2--2--2--2--2--2--2-|-4-4-4-4-4-4-4-4-|
|--0--0--0--0--0--0--0--0-|-4-4-4-4-4-4-4-4-|
|
|  E  E  E  E  E  E  E  E   E E E E E E E E
|----12----12----12----12-|---9---9---9---9-|
|-12----12----12----12----|-9---9---9---9---|
|-------------------------|-----------------|
|-------------------------|-----------------|
|-------------------------|-----------------|
|-------------------------|-----------------|


  D5/A                      A5
   E  E  E  E  E  E  E  E   E E E E E E E E
|-------------------------|-------------------||
|-------------------------|------------------o||
|-------------------------|-------------------||
|--7--7--7--7--7--7--7--7-|-7-7-7-7-7-7-7-7---||
|--5--5--5--5--5--5--5--5-|-7-7-7-7-7-7-7-7--o||
|--5--5--5--5--5--5--5--5-|-5-5-5-5-5-5-5-5---||
|
|  E  E  E  E  E  E  E  E   E E E E E E E E
|----10----10----10----10-|---5---5---5---5---||
|-10----10----10----10----|-5---5---5---5----o||
|-------------------------|-------------------||
|-------------------------|-------------------||
|-------------------------|------------------o||
|-------------------------|-------------------||


   Somebody said...
    A5                E/Ab              D5/A              A5
    Gtr V
    E E E E E E E E   E E E E E E E E   E E E E E E E E   E E E E E E E E  3x
||------------------|-----------------|-----------------|------------------||
||o-----------------|-----------------|-----------------|-----------------o||
||------------------|-----------------|-----------------|------------------||
||------------------|-----------------|-7-7-7-7-7-7-7-7-|------------------||
||o-7-7-7-7-7-7-7-7-|-7-7-7-7-7-7-7-7-|-5-5-5-5-5-5-5-5-|-7-7-7-7-7-7-7-7-o||
||--5-5-5-5-5-5-5-5-|-4-4-4-4-4-4-4-4-|-----------------|-5-5-5-5-5-5-5-5--||


  A5                E/Ab              D5/A                 A5
  E E E E E E E E   E E E E E E E E   E  E E E E E  E  E    Q   H.
|-----------------|-----------------|--------------------|---------------|
|-----------------|-----------------|--------------------|---------------|
|-----------------|-----------------|--------------------|---------------|
|-----------------|-----------------|-7--7-7-7-7-7--7--7-|---------------|
|-7-7-7-7-7-7-7-7-|-7-7-7-7-7-7-7-7-|-5--5-5-5-5-5--5--5-|--7\-----------|
|-5-5-5-5-5-5-5-5-|-4-4-4-4-4-4-4-4-|--------------------|--5\-----------|
|
| Gtr III
|                                     <             >
| W                 W                 H.           +Q      +H       H
|-----------------|-----------------|-5------------(5)---|-(5)-----------|
|-----------------|-----------------|-5------------(5)---|-(5)-----------|
|-----------------|-----------------|-6------------(6)---|-(6)-----------|
|-----------------|-----------------|--------------------|---------------|
|-----------------|-----------------|--------------------|---------------|
|-----------------|-----------------|--------------------|---------------|


 Vocal
  Q=75
  Gtr I
  Q   Q   Q   Q     Q    Q    Q    Q
|-5--(5)--7--(7)-|-10--(10)---9---(9)--|
|-5---2---3---2--|--3---(3)---2---(2)--|
|-9--(9)--7--(7)-|--7---11----9---13---|
|-7--(7)--6--(6)-|-12--(12)--11--(11)--|
|----------------|---------------------|
|----------------|---------------------|


   Q   Q    Q   Q      Q   Q    Q    Q
|--5--14---12--12---|--9--10----9----7---|
|--3--(3)---5--(5)--|--7--(7)---5----5---|
|-11--11---13--16---|-14--19---18--(18)--|
|-------------------|--------------------|
|-------------------|--------------------|
|-------------------|--------------------|


                       A5
   Q    Q    Q    Q     E   E   E    E  E  E   E   E
|--5---(5)---4---(4)-|--5--(5)-(5)--(5)-7-(7)-(7)-(7)-|
|--2---(2)---0---(0)-|--------------------------------|
|-18--(18)--16--(16)-|--------------------------------|
|-14---14---12---11--|--7---6---4----2--0--9---7---6--|
|--------------------|-12-(12)-12--(12)-5-(5)--7--(7)-|
|--------------------|--------------------------------|
|
| Gtr II
|  W                    E   E   E    E  E  E   E   E
|--------------------|--------------------------------|
|--------------------|--------------------------------|
|--------------------|--------------------------------|
|--------------------|--------------------------------|
|--------------------|--7---7---7----7--7--7---7---7--|
|--------------------|--5---5---5----5--5--5---5---5--|


  A5                                A5
   E   E    E    E  E +E   E  +E     E   E    E    E   E    E    E    E
|-10-(10)-(10)-(10)-9-(9)-(9)-(9)-|-10-(10)-(10)-(10)-12--(12)-(12)-(12)----|
|---------------------------------|-----------------------------------------|
|------7----6----4--6-(6)-(6)-(6)-|--7--(7)--(7)--(7)-(7)---9----7----6-----|
|--4--(4)--(4)--(4)-2-(2)-(2)-(2)-|-----------------------------------------|
|--9--(9)---5---(5)-7-(7)--9--(9)-|--7---5----2----4---5---(5)---0---(0)----|
|---------------------------------|-----------------------------------------|
|
|  E   E    E    E  E  E   E   E     S   S    E    E   E    E    E    E  E
|---------------------------------|-----------------------------------------|
|---------------------------------|-----------------------------------------|
|---------------------------------|-----------------------------------------|
|---------------------------------|--7---7----------------------------------|
|--7---7----7----7--7--7---7---7--|--7---7----7----7---7----7----7----7--7--|
|--5---5----5----5--5--5---5---5--|--5---5----5----5---5----5----5----5--5--|


  A5                                      A5
   E     E    E    E   E  +E    E   +E    E  E   E   E  E  E   E   E
|-14---(14)-(14)-(14)-12-(12)-(12)-(12)-|-9-(9)-(9)-(9)-7-(7)-(7)-(7)---|
|---------------------------------------|-------------------------------|
|--7-----6----4----7---6--(6)--(6)--(6)-|-------------------------------|
|---------------------------------------|-4--4---7---4--2--7---4---6----|
|--7-----5----2---(2)--7--(7)---4---(4)-|-9--9--12---9--7-(7)-(7)-(7)---|
|---------------------------------------|-------------------------------|
|
|  S S   E    E    E   E   E    E    E    S  S   E   E  E  E   E   E  E
|---------------------------------------|-------------------------------|
|---------------------------------------|-------------------------------|
|---------------------------------------|-------------------------------|
|--7-7----------------------------------|-7--7--------------------------|
|--7-7---7----7----7---7---7----7----7--|-7--7---7---7--7--7---7---7--7-|
|--5-5---5----5----5---5---5----5----5--|-5--5---5---5--5--5---5---5--5-|


 Fast Chorus
  Q=150
  A5      E/Ab      D5/A            A5
  Gtr II
  E E E E E E E E    E   E   E   E  E E E E
|-----------------|-------------------------|
|-----------------|-------------------------|
|-----------------|-(7)-(7)-(7)-(7)---------|
|-7-7-7-7-6-6-6-6-|--7---7---7---7--7-7-7-7-|
|-7-7-7-7-7-7-7-7-|--5---5---5---5--7-7-7-7-|
|-5-5-5-5-4-4-4-4-|--5---5---5---5--5-5-5-5-|


  E5                E5      D5/A
  E E E E E E E E   E E E E  E   E   E   E
|-----------------|--------------------------|
|-----------------|--------------------------|
|-----------------|---------(7)-(7)-(7)-(7)--|
|-2-2-2-2-2-2-2-2-|-2-2-2-2--7---7---7---7---|
|-2-2-2-2-2-2-2-2-|-2-2-2-2--5---5---5---5---|
|-0-0-0-0-0-0-0-0-|-0-0-0-0--5---5---5---5---|


  A5      E/Ab      D5/A            A5
  E E E E E E E E    E   E   E   E  E E E E
|-----------------|-------------------------|
|-----------------|-------------------------|
|-----------------|-(7)-(7)-(7)-(7)---------|
|-7-7-7-7-6-6-6-6-|--7---7---7---7--7-7-7-7-|
|-7-7-7-7-7-7-7-7-|--5---5---5---5--7-7-7-7-|
|-5-5-5-5-4-4-4-4-|--5---5---5---5--5-5-5-5-|


  E5/B            C#5/Ab            E5/B            C#5/Ab
   E   E   E   E   E   E   E   E     E   E   E   E   E   E   E   E
|---------------------------------|----------------------------------|
|---------------------------------|----------------------------------|
|-(9)-(9)-(9)-(9)-(6)-(6)-(6)-(6)-|-(9)-(9)-(9)-(9)-(6)-(6)-(6)-(6)--|
|--9---9---9---9---6---6---6---6--|--9---9---9---9---6---6---6---6---|
|--7---7---7---7---4---4---4---4--|--7---7---7---7---4---4---4---4---|
|--7---7---7---7---4---4---4---4--|--7---7---7---7---4---4---4---4---|


  E5/B            C#5/Ab            E5/B            C#5/Ab
   E   E   E   E   E   E   E   E     E   E   E   E   E   E   E   E
|---------------------------------|---------------------------------|
|---------------------------------|---------------------------------|
|-(9)-(9)-(9)-(9)-(6)-(6)-(6)-(6)-|-(9)-(9)-(9)-(9)-(6)-(6)-(6)-(6)-|
|--9---9---9---9---6---6---6---6--|--9---9---9---9---6---6---6---6--|
|--7---7---7---7---4---4---4---4--|--7---7---7---7---4---4---4---4--|
|--7---7---7---7---4---4---4---4--|--7---7---7---7---4---4---4---4--|


 Slow Chorus
  Q=75
  Q  E E E E E E    Q   E E Q E E
|----------------|-----------------|
|----------------|-----------------|
|-2--2-4-6-2-6-9-|-11--11-9-2-2-2--|
|-2--2-4-6-2-6-9-|-11--11-9-2-2-2--|
|-0--0-2-4-0-4-7-|--9---9-7-0-0-0--|
|----------------|-----------------|


                  Outro
                 Q=150
  Q  Q   Q    Q     E   E   E   E   E   E   E   E
|----------------|---------------------------------|
|----------------|---------------------------------|
|-------(6)--(6)-|-(7)-(7)-(7)-(7)-(7)-(7)-(7)-(7)-|
|-2--2---6----6--|--7---7---7---7---7---7---7---7--|
|-2--2---4----4--|--5---5---5---5---5---5---5---5--|
|-0--0---4----4--|--5---5---5---5---5---5---5---5--|


      <                                         <
  Q   Q    E   E   E   E     E   E   E   E  Q   Q
|----<3>------------------|--------------------<3>--|
|-------------------------|-------------------------|
|---------(7)-(7)-(7)-(7)-|-(7)-(7)-(7)-(7)---------|
|-7--------7---7---7---7--|--7---7---7---7--7-------|
|-7--------5---5---5---5--|--5---5---5---5--7-------|
|-5--------5---5---5---5--|--5---5---5---5--5-------|


                                        <       <
   E   E   E   E   E   E   E   E    Q   Q   Q   Q
|---------------------------------|----<3>-----<3>-|
|---------------------------------|----------------|
|-(7)-(7)-(7)-(7)-(7)-(7)-(7)-(7)-|----------------|
|--7---7---7---7---7---7---7---7--|-7-------7------|
|--5---5---5---5---5---5---5---5--|-7--<5>--7--<5>-|
|--5---5---5---5---5---5---5---5--|-5-------5------|


  W          +W
|----------|--------*|
|----------|--------*|
|----------|--------*|
|-7--------|-(7)----*|
|-7--------|-(7)----*|
|-5--------|-(5)----*|

Duration Legend
---------------
W - whole; H - half; Q - quarter; E - 8th; S - 16th; T - 32nd; X - 64th; a - acciaccatura
+ - note tied to previous; . - note dotted; .. - note double dotted
Uncapitalized letters represent notes that are staccato (1/2 duration)
Irregular groupings are notated above the duration line
Duration letters will always appear directly above the note/fret number it represents the
duration for.  Duration letters with no fret number below them represent rests.  Multi-
bar rests are notated in the form Wxn, where n is the number of bars to rest for.  Low
melody durations appear below the staff

Tablature Legend
----------------
 h   - hammer-on
 p   - pull-off
 b   - bend
 pb  - pre-bend
 r   - bend release (if no number after the r, then release immediately)
 /\  - slide into or out of (from/to "nowhere")
 s   - legato slide
 S   - shift slide
 - natural harmonic
[n]  - artificial harmonic
n(n) - tapped harmonic
 ~   - vibrato
 tr  - trill
 T   - tap
 TP  - trem. picking
 PM  - palm muting
\n/  - tremolo bar dip; n = amount to dip
 \n  - tremolo bar down
 n/  - tremolo bar up
/n\  - tremolo bar inverted dip
 =   - hold bend; also acts as connecting device for hammers/pulls
 <> - volume swell (louder/softer)
 x   - on rhythm slash represents muted slash
 o   - on rhythm slash represents single note slash

Misc Legend
-----------
 |  - bar
||  - double bar
||o - repeat start
o|| - repeat end
*|  - double bar (ending)
 :  - bar (freetime)
 $  - Segno
 &  - Coda
Tempo markers -  = BPM(8/16=s8/s16), where s8 = swing 8ths, s16 = swing 16ths
Tap to rate this tab
# A B C D E F G H I J K L M N O P Q R S T U V W X Y Z