Song name
# A B C D E F G H I J K L M N O P Q R S T U V W X Y Z

Weezer - Smile tab

-------------------------------------------------------------------------------
			     Smile - Weezer
-------------------------------------------------------------------------------

Tabbed by: cjpm105

Tuning: Guitar 1 - Standard
        Guitar 2 - Standard

Key
/  slide up
\  slide down
h  hammer-on
p  pull-off
~  sustain

Intro
Guitar 1
e|------------------------------------------------------------------------------------------------|
B|------------------------------------------------------------------------------------------------|
G|------------------------------------------------------------------------------------------------|
D|--7--7--7--7--7--7--7--7--7--7--7--7--7--7--7--7--9--9--9--9--9--9--9--9--9--9--9--9--9--9--9--9|
A|--7--7--7--7--7--7--7--7--7--7--7--7--7--7--7--7--9--9--9--9--9--9--9--9--9--9--9--9--9--9--9--9|
E|--5--5--5--5--5--5--5--5--5--5--5--5--5--5--5--5--7--7--7--7--7--7--7--7--7--7--7--7--7--7--7--7|
Guitar 2
e|------------------------------------------------------------------------------------------------|
B|------------------------------------------------------------------------------------------------|
G|-----------------------------------------------------------------6---------------------------8--|
D|-----------------4-----------------------4----------6-9-9----9-6---9-9----9-6-9-6-9~------------|
A|----4-7-7----7-4---7-7--7---4-7-7----7-4---7-7--7-----------------------------------------------|
E|------------------------------------------------------------------------------------------------|

Verse
e|----------------------------------------------------------------------------------------|
B|----------------------------------------------------------------------------------------|
G|----------------------------------------------4----4----2-2-2--2----6----6----6-6-6--6--|
D|--2----2----6-6-6--6----7----7----4-4-4--4----4----4----4-4-4--4----6----6----6-6-6--6--|
A|--2----2----6-6-6--6----7----7----4-4-4--4----2----2----2-2-2--2----4----4----4-4-4--4--|
E|--0----0----4-4-4--4----5----5----2-2-2--2------------------------------------0-0-0--0--|

Chorus
e|--------------------------------------------------------------------------------------------|
B|--------------------------------------------------------------------------------------------|
G|--------------------------------------------------------------------------------------------|
D|--7----7----9-9-9--9----9----9----11-11-11--11----7----7----7-7-7--7----9----9----9-9-9--9--|
A|--7----7----9-9-9--9----7----7----11-11-11--11----7----7----7-7-7--7----9----9----9-9-9--9--|
E|--5----5----7-7-7--7----7----7-----9--9--9---9----5----5----5-5-5--5----7----7----7-7-7--7--|

Second Verse
e|----------------------------------------------------------------------------------------|
B|----------------------------------------------------------------------------------------|
G|----------------------------------------------4----4----2-2-2--2----6----6----6-6-6--6--|
D|--2----2----6-6-6--6----7----7----4-4-4--4----4----4----4-4-4--4----6----6----6-6-6--6--|
A|--2----2----6-6-6--6----7----7----4-4-4--4----2----2----2-2-2--2----4----4----4-4-4--4--|
E|--0----0----4-4-4--4----5----5----2-2-2--2------------------------------------0-0-0--0--|

Second Chorus
e|--------------------------------------------------------------------------------------------|
B|--------------------------------------------------------------------------------------------|
G|--------------------------------------------------------------------------------------------|
D|--7----7----9-9-9--9----9----9----11-11-11--11----7----7----7-7-7--7----9----9----9-9-9--9--|
A|--7----7----9-9-9--9----7----7----11-11-11--11----7----7----7-7-7--7----9----9----9-9-9--9--|
E|--5----5----7-7-7--7----7----7-----9--9--9---9----5----5----5-5-5--5----7----7----7-7-7--7--|

e|--------------------------------------------------------------------------------------|
B|--------------------------------------------------------------------------------------|
G|----------------------------------------------9----9----9----9----6----6----4----4----|
D|--7----7----7-7-7--7----9----9----9-9-9--9----9----9----9----9----6----6----4----4----|
A|--7----7----7-7-7--7----9----9----9-9-9--9----7----7----6----6----4----4----2----2----|
E|--5----5----5-5-5--5----7----7----7-7-7--7--------------------------------------------|

e|----------------------------------------------------------------------------------------|
B|----------------------------------------------------------------------------------------|
G|----------------------------------------------------------------------------------------|
D|--7----7----7-7-7--7----7----7----7-7-7--7----9----9----9-9-9--9----9----9----9-9-9--9--|
A|--7----7----7-7-7--7----7----7----7-7-7--7----9----9----9-9-9--9----9----9----9-9-9--9--|
E|--5----5----5-5-5--5----5----5----5-5-5--5----7----7----7-7-7--7----7----7----7-7-7--7--|

Solo - played with a wah pedal, Guitar 2 plays the verse behind it. 
e|----------------------------------------------------------------------------------------|
B|----------------------------------------------------------------------------------------|
G|----------------------------------------------------------------------------------------|
D|--6-9-6-9----6-9-6-9--9--9~----9-11-9-11---9-11-9-11--11--11~----9~-------7-7-6--7--6~--|
A|----------------------------------------------------------------------------------------|
E|----------------------------------------------------------------------------------------|

Final Chorus
e|--------------------------------------------------------------------------------------------|
B|--------------------------------------------------------------------------------------------|
G|--------------------------------------------------------------------------------------------|
D|--7----7----9-9-9--9----9----9----11-11-11--11----7----7----7-7-7--7----9----9----9-9-9--9--|
A|--7----7----9-9-9--9----7----7----11-11-11--11----7----7----7-7-7--7----9----9----9-9-9--9--|
E|--5----5----7-7-7--7----7----7-----9--9--9---9----5----5----5-5-5--5----7----7----7-7-7--7--|

e|--------------------------------------------------------------------------------------|
B|--------------------------------------------------------------------------------------|
G|----------------------------------------------9----9----9----9----6----6----4----4----|
D|--7----7----7-7-7--7----9----9----9-9-9--9----9----9----9----9----6----6----4----4----|
A|--7----7----7-7-7--7----9----9----9-9-9--9----7----7----6----6----4----4----2----2----|
E|--5----5----5-5-5--5----7----7----7-7-7--7--------------------------------------------|

e|----------------------------------------------------------------------------------------|
B|----------------------------------------------------------------------------------------|
G|----------------------------------------------------------------------------------------|
D|--7----7----7-7-7--7----7----7----7-7-7--7----9----9----9-9-9--9----9----9----9-9-9--9--|
A|--7----7----7-7-7--7----7----7----7-7-7--7----9----9----9-9-9--9----9----9----9-9-9--9--|
E|--5----5----5-5-5--5----5----5----5-5-5--5----7----7----7-7-7--7----7----7----7-7-7--7--|

Final Verse
e|----------------------------------------------------------------------|
B|----------------------------------------------------------------------|
G|----------------------------------------------4----4----2----2----6~--|
D|--2----2----6-6-6--6----7----7----4-4-4--4----4----4----4----4----6~--|
A|--2----2----6-6-6--6----7----7----4-4-4--4----2----2----2----2----4~--|
E|--0----0----4-4-4--4----5----5----2-2-2--2----------------------------|


Tap to rate this tab
 
# A B C D E F G H I J K L M N O P Q R S T U V W X Y Z