Song name
# A B C D E F G H I J K L M N O P Q R S T U V W X Y Z

Weezer - Baby One More Time tab

Here is the order of the 4 main chords.  F# is repeated once and then back to
B minor.  And as always... listen to the song for the correct rythym.

    Bm      F#     D      E      F#

E|---2------2------2------0------2
B|---3------2------3------0------2
G|---4------3------2------1------3
D|---4------4------0------2------4
A|---2------4------x------2------4
E|---2------2------x------0------2 

    Bm      F#     D      E      F#

E|---2------2------2------0------2
B|---3------2------3------0------2
G|---4------3------2------1------3
D|---4------4------0------2------4
A|---2------4------x------2------4
E|---2------2------x------0------2 

I recomend lots of distortion :) For the power chord version, email me.

blake@aircanopy.net
-pe@ce
Tap to rate this tab
# A B C D E F G H I J K L M N O P Q R S T U V W X Y Z