Guitaretab - guitar tabs
Song name
# A B C D E F G H I J K L M N O P Q R S T U V W X Y Z
Home / W / Weezer / Holiday tab

Weezer - Holiday tab

-------------------------------------------------------------------------------
			     “Holiday” - Weezer
-------------------------------------------------------------------------------
Tabbed by: Edgar	
Email: A3oooBenjamin@yahoo.com

Intro:
e|---------------------------------------------------------------------------|
B|-----------------------9--9--------9----9---------------10--9-----12b--9---|
G|-------8-9-8h9p8-------------11p9---------11-9--9-11-9--------11-----------|
D|--9-11-----------11--------------------------------------------------------|
A|---------------------------------------------------------------------------|
E|---------------------------------------------------------------------------|


e|-----------------------------------------9b--------------------------------|
B|--10/12--12-12-12---10-10-10-10--9--10--------12---------------------------|
G|---------------------------------------------------------------------------|
D|---------------------------------------------------------------------------|
A|---------------------------------------------------------------------------|
E|---------------------------------------------------------------------------|

Verse:
e|---------------------------------------------------------------------------|
B|---------------------------------------------------------------------------|
G|--------------------------------------2--2--2--2--2--2--4--4--4--2-4-2-----|
D|--2--2--2--2--2--4--6--6--6--6--6--6--2--2--2--2--2--2--4--4--4--2-4-2-----|
A|--2--2--2--2--2--4--6--6--6--6--6--6--0--0--0--0--0--0--2--2--2--0-2-0-----|
E|--0--0--0--0--0--2--4--4--4--4--4--4---------------------------------------|

Chorus:
e|---------------------------------------------------------------------------|
B|---------------------------------------------------------------------------|
G|---------------------------------------------------------------------------|
D|--2---6---7-7-7-7-7-6-2-2-2-2-2-6-7-7-7-7-7-6------------------------------|
A|--2---6---7-7-7-7-7-6-2-2-2-2-2-6-7-7-7-7-7-6------------------------------|
E|--0---4---5-5-5-5-5-4-0-0-0-0-0-4-5-5-5-5-5-4------------------------------|
[ Tab from: http://www.guitaretab.com/w/weezer/121980.html ]
Bridge:
e|---------------------------------------------------------------------------|
B|---------------------------------------------------------------------------|
G|------------4-5-5-5-5-5-4-----------4-5-5-5-5-5-4--------------------------|
D|--2-2-2-2-2-4-5-5-5-5-5-4-2-2-2-2-2-4-5-5-5-5-5-4--------------------------|
A|--2-2-2-2-2-2-3-3-3-3-3-2-2-2-2-2-2-2-3-3-3-3-3-2--------------------------|
E|--0-0-0-0-0---------------0-0-0-0-0----------------------------------------|

Intro to 2nd Verse:
e|---------------------------------------------------------------------------|
B|---------------------------------------------------------------------------|
G|----9---9---9------8-9--------8-9-8----------------------------------------|
D|--9---9---9---9~--------11~----------11-9----------------------------------|
A|-------------------------------------------12-11~--------------------------|
E|---------------------------------------------------------------------------|

Interlude (Bass):
G|---------------------------------------------------------------------------|
D|---------------------------------------------------------------------------|
A|---------------------------------------------------------------------------|
E|--9----11--12----0--4----0---5---7--9----11--12----0--4----0----5--7-------|

Outro 1 :
e|---------------------------------------------------------------------------|
B|---------------------------------------------------------------------------|
G|---------------------------------------------------------------------------|
D|--7-7-7-7-7-6-2-2-2-2-2-2-7-7-7-7-7-6-2-2-2-2-2-2--------------------------|
A|--7-7-7-7-7-6-2-2-2-2-2-2-7-7-7-7-7-6-2-2-2-2-2-2--------------------------|
E|--5-5-5-5-5-4-0-0-0-0-0-0-5-5-5-5-5-4-0-0-0-0-0-0--------------------------|

Outro 2:
e|---------------------------------------------------------------------------|
B|---------------------------------------------------------------------------|
G|-----------------------6------4--------------------------------------------|
D|--2------6------7------6------4-----4------2~------------------------------|
A|--2------6------7------4------2-----4------2~------------------------------|
E|--0------4------5-------------------2------0~------------------------------|

Song Order:

Intro
Verse (x2)
Chorus (x2)
Bridge
Intro to 2nd Verse
Verse (x2)
Chorus (x2)
Bridge (x2)
Interlude
Bridge
Verse (x2)
Chorus (x2)(Interrupted by first part of Intro)
Outro 1 (x2)
Outro 2
===============================================================================
Related for Holiday tab
Advertisement will be closed in 10 seconds