Song name
# A B C D E F G H I J K L M N O P Q R S T U V W X Y Z

Weezer - I Do tab

I Do
Artist: Weezer
Album: The Green Album (UK Version)

Intro
Distortion
e|----------------------|---------------------|------------------------|------------------------|
B|---4---------2--------|--------/7-----------|-----4----------2-------|----0----0--------------|
G|----------------------|---------------------|------------------------|------------------------|
D|----------------------|---------------------|------------------------|------------------------|
A|----------------------|---------------------|------------------------|------------------------|
E|----------------------|---------------------|------------------------|------------------------|

Verse
e|----------------------|---------------------|------------------------|------------------------|
B|-4---2--4---7----2----|-4---5---4--5--9--4--|9-11-12-12-12-11-11-11-7|9-11-12-12-12-11-11-11-7|
G|----------------------|---------------------|------------------------|------------------------|
D|----------------------|---------------------|------------------------|------------------------|
A|----------------------|---------------------|------------------------|------------------------|
E|----------------------|---------------------|------------------------|------------------------|

Bridge
e|----------------------|---------------------|------------------------|------------------------|
B|---4---------2--------|--------/7-----------|-----4----------2-------|----0----0--------------|
G|----------------------|---------------------|------------------------|------------------------|
D|----------------------|---------------------|------------------------|------------------------|
A|----------------------|---------------------|------------------------|------------------------|
E|----------------------|---------------------|------------------------|------------------------|

Solo
Distortion*		                   End*
e|----------------------|---------------------|------------------------|------------------------|
B|-4---2--4---7----2----|-4---5---4--5--9--4--|9-11-12-12-12-11-11-11-7|9-11-12-12-12-11-11-11-7|
G|----------------------|---------------------|------------------------|------------------------|
D|----------------------|---------------------|------------------------|------------------------|
A|----------------------|---------------------|------------------------|------------------------|
E|----------------------|---------------------|------------------------|------------------------|

Outro
e|----------------------|---------------------|         Intro
B|-4---2--4---7----2----|-4---5---4--5--9--4--|         Verse x2
G|----------------------|---------------------|         Bridge
D|----------------------|---------------------|         Solo
A|----------------------|---------------------|         Outro
E|----------------------|---------------------|
Tap to rate this tab
 
# A B C D E F G H I J K L M N O P Q R S T U V W X Y Z