Song name
# A B C D E F G H I J K L M N O P Q R S T U V W X Y Z

Weezer - Blast Off tab

----------------------------------------------------------------------------
                              Weezer- Blast Off!
----------------------------------------------------------------------------Artist:Weezer
Song:Blast Off!
Length:2:02
Album:Songs From The Black Hole
Tabbed by:thedevil
Email:thedevil123456789@hotmail.com
Ok, props to the first guy who did this tab, but after playing with the song I found out
it was one fret off, so I thought I would just make the correction.
Tuning:standard
                    Main Riff("The best melody ever created")
e|---------------------------------------------------------------------------|
B|---------------------------------------------------------------------------|
G|-99----------44------------------------------------------------------------|
D|-99--77--44--44------------------------------------------------------------|
A|-77--77--44--22------------------------------------------------------------|
E|-----55--22----------------------------------------------------------------|
                   End verse riff
e|-------------------------------------------------------------------------|
B|-------------------------------------------------------------------------|
G|-66--------44--4444------------------------------------------------------|
D|-66--44--7-44--4444------------------------------------------------------|
A|-44--44--7-22--2222------------------------------------------------------|
E|-----22--5---------------------------------------------------------------|
                           Bridge
e|-------------------------------------------------------------------------|
B|-------------------------------------------------------------------------|
G|-7-------------9---------------------------------------------------------|
D|-7-(x8)-5------9-(x8)-7--------------------------------------------------|
A|-5------5-(x8)-7------7-(x8)---------------------------------------------|
E|--------3-------------5--------------------------------------------------|

The quiet part is pretty much bass, and just 2 guitar notes played twice, it's not that
I would either(if your in a band, like me) just let the bass play for that part. If you
then just play the main riff really softly, perhaps without distortion. Please rate and 
posting "Songs From The Black Hole" tabs!
Tap to rate this tab
 
# A B C D E F G H I J K L M N O P Q R S T U V W X Y Z