Song name
# A B C D E F G H I J K L M N O P Q R S T U V W X Y Z

Weezer - Slave tab

-------------------------------------------------------------------------------
			     Slave - Weezer
-------------------------------------------------------------------------------

Tabbed by: cjpm105

Tuning: Guitar 1 - Standard
        Guitar 2 - Standard

Key
/  slide up
\  slide down
h  hammer-on
p  pull-off
~  sustain
b  bend

Intro
e|------------------------------------------------------------------|
B|------------------------------------------------------------------|
G|------------------------------------9--9--9---9----9-9--9--9---9--|
D|--9--9--9---9----9-9--9--9---9----9-9--9--9---9----9-9--9--9---9--|
A|--9--9--9---9----9-9--9--9---9----9-7--7--7---7----7-7--7--7---7--|
E|--7--7--7---7----7-7--7--7---7----7-7--7--7---7----7-7--7--7---7--|
*********************************************************************
e|------------------------------------------------------------------|
B|------------------------------------------------------------------|
G|-------------------------------------------------6--9--7--6-------|
D|----------------------------------------------6--------------9----|
A|------------------------------------------------------------------|
E|------------------------------------------------------------------|

e|-----------------------------------------------------------------------|
B|-----------------------------------------------------------------------|
G|--9-6--6--6---6----6-6--6--6---6----6----------------------------------|
D|--9-6--6--6---6----6-6--6--6---6----6-4-4-4-4-4---4-4---4-4---4-4---4--|
A|--7-4--4--4---4----4-4--4--4---4----4-4-4-4-4-4---4-4---4-4---4-4---4--|
E|--7-4--4--4---4----4-4--4--4---4----4-2-2-2-0-2---0-2---0-2---0-2---0--|
**************************************************************************
e|-----------------------------------------------------------------------|
B|-----------------------------------------------------------------------|
G|----6-------------6----------------------------------------------------|
D|-----------6-------------------9---7--7~-------------------------------|
A|-----------------------------------------------------------------------|
E|-----------------------------------------------------------------------|

Verse
e|------------------------------------------------------------------------------------------------|
B|------------------------------------------------------------------------------------------------|
G|-7--7--7--7--7--7--7--7--4--4--4--4--4--4--4--4--------------------------9--9--9--9--9--9--9--9-|
D|-7--7--7--7--7--7--7--7--4--4--4--4--4--4--4--4--7--7--7--7--7--7--7--7--9--9--9--9--9--9--9--9-|
A|-5--5--5--5--5--5--5--5--2--2--2--2--2--2--2--2--7--7--7--7--7--7--7--7--7--7--7--7--7--7--7--7-|
E|-5--5--5--5--5--5--5--5--2--2--2--2--2--2--2--2--5--5--5--5--5--5--5--5--7--7--7--7--7--7--7--7-|
***************************************************************************************************
e|-------------------------------------------------------------------------9------7---------------|
B|------------------------------------------------------------------------------------------------|
G|---------------------------------------------------------------------------------------7--------|
D|------------------------------------------------------------------------------------------------|
A|------------------------------------------------------------------------------------------------|
E|------------------------------------------------------------------------------------------------|

e|------------------------------------------------------------------------------------------------|
B|------------------------------------------------------------------------------------------------|
G|-7--7--7--7--7--7--7--7--4--4--4--4--4--4--4--4--------------------------9--9--9--9--9--9--9--9-|
D|-7--7--7--7--7--7--7--7--4--4--4--4--4--4--4--4--7--7--7--7--7--7--7--7--9--9--9--9--9--9--9--9-|
A|-5--5--5--5--5--5--5--5--2--2--2--2--2--2--2--2--7--7--7--7--7--7--7--7--7--7--7--7--7--7--7--7-|
E|-5--5--5--5--5--5--5--5--2--2--2--2--2--2--2--2--5--5--5--5--5--5--5--5--7--7--7--7--7--7--7--7-|
***************************************************************************************************
e|-------------------------------------------------------------------------9------7---------------|
B|--10~-------------------------------------------------------------------------------------------|
G|---------------------------------------------------------------------------------------7--------|
D|------------------------------------------------------------------------------------------------|
A|------------------------------------------------------------------------------------------------|
E|------------------------------------------------------------------------------------------------|

Chorus
e|------------------------------------------------------------------------------------------------|
B|------------------------------------------------------------------------------------------------|
G|-7--7--7--7--7--7--7--7--------------------------7--7--7--7--7--7--7--7-------------------------|
D|-7--7--7--7--7--7--7--7--7--7--7--7--7--7--7--7--7--7--7--7--7--7--7--7--7--7--7--7--7--7--7--7-|
A|-5--5--5--5--5--5--5--5--7--7--7--7--7--7--7--7--5--5--5--5--5--5--5--5--7--7--7--7--7--7--7--7-|
E|-5--5--5--5--5--5--5--5--5--5--5--5--5--5--5--5--5--5--5--5--5--5--5--5--5--5--5--5--5--5--5--5-|
***************************************************************************************************
e|-10-9-----10----9----9---------------------------10-9-----10----9----9--------------------------|
B|------10----------10-----10------10~------------------10----------10-----10------10~------------|
G|----------------------------11-9--------------------------------------------11-9----------------|
D|------------------------------------------------------------------------------------------------|
A|------------------------------------------------------------------------------------------------|
E|------------------------------------------------------------------------------------------------|

e|------------------------------------------------------------------------------------------------|
B|------------------------------------------------------------------------------------------------|
G|-7--7--7--7--7--7--7--7--------------------------7--7--7--7--7--7--7--7--7--7--7--7--7--7--7--7-|
D|-7--7--7--7--7--7--7--7--7--7--7--7--7--7--7--7--7--7--7--7--7--7--7--7--7--7--7--7--7--7--7--7-|
A|-5--5--5--5--5--5--5--5--7--7--7--7--7--7--7--7--5--5--5--5--5--5--5--5--5--5--5--5--5--5--5--5-|
E|-5--5--5--5--5--5--5--5--5--5--5--5--5--5--5--5--5--5--5--5--5--5--5--5--5--5--5--5--5--5--5--5-|
***************************************************************************************************
e|-10-9-----10----9----9---------------------------10-9-----10-9-----10-9-----10-9----10-9----9---|
B|------10----------10-----10------10~------------------10-------10-------10------10------10------|
G|----------------------------11-9----------------------------------------------------------------|
D|------------------------------------------------------------------------------------------------|
A|------------------------------------------------------------------------------------------------|
E|------------------------------------------------------------------------------------------------|

e|------------------------------------------------|
B|------------------------------------------------|
G|-6--6--6--6--6--6--6--6--7--7--7--7--7--7--7--7-|
D|-6--6--6--6--6--6--6--6--7--7--7--7--7--7--7--7-|
A|-4--4--4--4--4--4--4--4--5--5--5--5--5--5--5--5-|
E|-4--4--4--4--4--4--4--4--5--5--5--5--5--5--5--5-|
***************************************************
e|------------------------------------------------|
B|-10-------10--------------------10~-------------|
G|----11-9--------11--9--------9------------------|
D|-------------------------12---------------------|
A|------------------------------------------------|
E|------------------------------------------------|

Second Verse
e|------------------------------------------------------------------------------------------------|
B|------------------------------------------------------------------------------------------------|
G|-7--7--7--7--7--7--7--7--4--4--4--4--4--4--4--4--------------------------9--9--9--9--9--9--9--9-|
D|-7--7--7--7--7--7--7--7--4--4--4--4--4--4--4--4--7--7--7--7--7--7--7--7--9--9--9--9--9--9--9--9-|
A|-5--5--5--5--5--5--5--5--2--2--2--2--2--2--2--2--7--7--7--7--7--7--7--7--7--7--7--7--7--7--7--7-|
E|-5--5--5--5--5--5--5--5--2--2--2--2--2--2--2--2--5--5--5--5--5--5--5--5--7--7--7--7--7--7--7--7-|
***************************************************************************************************
e|-------------------------------------------------------------------------9------7---------------|
B|------------------------------------------------------------------------------------------------|
G|---------------------------------------------------------------------------------------7--------|
D|------------------------------------------------------------------------------------------------|
A|------------------------------------------------------------------------------------------------|
E|------------------------------------------------------------------------------------------------|

e|------------------------------------------------------------------------------------------------|
B|------------------------------------------------------------------------------------------------|
G|-7--7--7--7--7--7--7--7--4--4--4--4--4--4--4--4--------------------------9--9--9--9--9--9--9--9-|
D|-7--7--7--7--7--7--7--7--4--4--4--4--4--4--4--4--7--7--7--7--7--7--7--7--9--9--9--9--9--9--9--9-|
A|-5--5--5--5--5--5--5--5--2--2--2--2--2--2--2--2--7--7--7--7--7--7--7--7--7--7--7--7--7--7--7--7-|
E|-5--5--5--5--5--5--5--5--2--2--2--2--2--2--2--2--5--5--5--5--5--5--5--5--7--7--7--7--7--7--7--7-|
***************************************************************************************************
e|-------------------------------------------------------------------------9------7---------------|
B|--10~-------------------------------------------------------------------------------------------|
G|---------------------------------------------------------------------------------------7--------|
D|------------------------------------------------------------------------------------------------|
A|------------------------------------------------------------------------------------------------|
E|------------------------------------------------------------------------------------------------|

Second Chorus
e|------------------------------------------------------------------------------------------------|
B|------------------------------------------------------------------------------------------------|
G|-7--7--7--7--7--7--7--7--------------------------7--7--7--7--7--7--7--7-------------------------|
D|-7--7--7--7--7--7--7--7--7--7--7--7--7--7--7--7--7--7--7--7--7--7--7--7--7--7--7--7--7--7--7--7-|
A|-5--5--5--5--5--5--5--5--7--7--7--7--7--7--7--7--5--5--5--5--5--5--5--5--7--7--7--7--7--7--7--7-|
E|-5--5--5--5--5--5--5--5--5--5--5--5--5--5--5--5--5--5--5--5--5--5--5--5--5--5--5--5--5--5--5--5-|
***************************************************************************************************
e|-10-9-----10----9----9---------------------------10-9-----10----9----9--------------------------|
B|------10----------10-----10------10~------------------10----------10-----10------10~------------|
G|----------------------------11-9--------------------------------------------11-9----------------|
D|------------------------------------------------------------------------------------------------|
A|------------------------------------------------------------------------------------------------|
E|------------------------------------------------------------------------------------------------|

e|------------------------------------------------------------------------------------------------|
B|------------------------------------------------------------------------------------------------|
G|-7--7--7--7--7--7--7--7--------------------------7--7--7--7--7--7--7--7--7--7--7--7--7--7--7--7-|
D|-7--7--7--7--7--7--7--7--7--7--7--7--7--7--7--7--7--7--7--7--7--7--7--7--7--7--7--7--7--7--7--7-|
A|-5--5--5--5--5--5--5--5--7--7--7--7--7--7--7--7--5--5--5--5--5--5--5--5--5--5--5--5--5--5--5--5-|
E|-5--5--5--5--5--5--5--5--5--5--5--5--5--5--5--5--5--5--5--5--5--5--5--5--5--5--5--5--5--5--5--5-|
***************************************************************************************************
e|-10-9-----10----9----9---------------------------10-9-----10-9-----10-9-----10-9----10-9----9---|
B|------10----------10-----10------10~------------------10-------10-------10------10------10------|
G|----------------------------11-9----------------------------------------------------------------|
D|------------------------------------------------------------------------------------------------|
A|------------------------------------------------------------------------------------------------|
E|------------------------------------------------------------------------------------------------|

e|------------------------------------------------|
B|------------------------------------------------|
G|-6--6--6--6--6--6--6--6--7--7--7--7--7--7--7--7-|
D|-6--6--6--6--6--6--6--6--7--7--7--7--7--7--7--7-|
A|-4--4--4--4--4--4--4--4--5--5--5--5--5--5--5--5-|
E|-4--4--4--4--4--4--4--4--5--5--5--5--5--5--5--5-|
***************************************************
e|------------------------------------------------|
B|-10-------10--------------------10~-------------|
G|----11-9--------11--9--------9------------------|
D|-------------------------12---------------------|
A|------------------------------------------------|
E|------------------------------------------------|

Bridge
e|------------------------------------------------------------------|
B|------------------------------------------------------------------|
G|------------------------------------9--9--9---9----9-9--9--9---9--|
D|--9--9--9---9----9-9--9--9---9----9-9--9--9---9----9-9--9--9---9--|
A|--9--9--9---9----9-9--9--9---9----9-7--7--7---7----7-7--7--7---7--|
E|--7--7--7---7----7-7--7--7---7----7-7--7--7---7----7-7--7--7---7--|
*********************************************************************
e|------------------------------------------------------------------|
B|------------------------------------------------------------------|
G|-------------------------------------------------6--9--7--6-------|
D|----------------------------------------------6--------------9----|
A|------------------------------------------------------------------|
E|------------------------------------------------------------------|

e|-----------------------------------------------------------------------|
B|-----------------------------------------------------------------------|
G|--9-6--6--6---6----6-6--6--6---6----6----------------------------------|
D|--9-6--6--6---6----6-6--6--6---6----6-4-4-4-4-4---4-4---4-4---4-4---4--|
A|--7-4--4--4---4----4-4--4--4---4----4-4-4-4-4-4---4-4---4-4---4-4---4--|
E|--7-4--4--4---4----4-4--4--4---4----4-2-2-2-0-2---0-2---0-2---0-2---0--|
**************************************************************************
e|-----------------------------------------------------------------------|
B|-----------------------------------------------------------------------|
G|----6-------------6----------------------------------------------------|
D|-----------6-------------------9---7--7~-------------------------------|
A|-----------------------------------------------------------------------|
E|-----------------------------------------------------------------------|

Solo
e|------------------------------------------------------------------------------------------------|
B|------------------------------------------------------------------------------------------------|
G|-7--7--7--7--7--7--7--7--4--4--4--4--4--4--4--4--------------------------9--9--9--9--9--9--9--9-|
D|-7--7--7--7--7--7--7--7--4--4--4--4--4--4--4--4--7--7--7--7--7--7--7--7--9--9--9--9--9--9--9--9-|
A|-5--5--5--5--5--5--5--5--2--2--2--2--2--2--2--2--7--7--7--7--7--7--7--7--7--7--7--7--7--7--7--7-|
E|-5--5--5--5--5--5--5--5--2--2--2--2--2--2--2--2--5--5--5--5--5--5--5--5--7--7--7--7--7--7--7--7-|
***************************************************************************************************
e|-------------------------------------------------9-------9--9~------10---7~------9b--7----7-----|
B|-10~-------9~----7~------10~------9~----7~---------------------------------------------10---10~-|
G|------------------------------------------------------------------------------------------------|
D|------------------------------------------------------------------------------------------------|
A|------------------------------------------------------------------------------------------------|
E|------------------------------------------------------------------------------------------------|

e|------------------------------------------------------------------------------------------------|
B|------------------------------------------------------------------------------------------------|
G|-7--7--7--7--7--7--7--7--4--4--4--4--4--4--4--4--------------------------9--9--9--9--9--9--9--9-|
D|-7--7--7--7--7--7--7--7--4--4--4--4--4--4--4--4--7--7--7--7--7--7--7--7--9--9--9--9--9--9--9--9-|
A|-5--5--5--5--5--5--5--5--2--2--2--2--2--2--2--2--7--7--7--7--7--7--7--7--7--7--7--7--7--7--7--7-|
E|-5--5--5--5--5--5--5--5--2--2--2--2--2--2--2--2--5--5--5--5--5--5--5--5--7--7--7--7--7--7--7--7-|
***************************************************************************************************
e|----------14~------------14----12----------------14----12---------------------------------------|
B|-----------------------------------15--14------------------15--14-------15--14-12---------12----|
G|---------------------------------------------14---------------------14------------14---14----14-|
D|------------------------------------------------------------------------------------------------|
A|------------------------------------------------------------------------------------------------|
E|------------------------------------------------------------------------------------------------|

Final Chorus
e|------------------------------------------------------------------------------------------------|
B|------------------------------------------------------------------------------------------------|
G|-7--7--7--7--7--7--7--7--------------------------7--7--7--7--7--7--7--7-------------------------|
D|-7--7--7--7--7--7--7--7--7--7--7--7--7--7--7--7--7--7--7--7--7--7--7--7--7--7--7--7--7--7--7--7-|
A|-5--5--5--5--5--5--5--5--7--7--7--7--7--7--7--7--5--5--5--5--5--5--5--5--7--7--7--7--7--7--7--7-|
E|-5--5--5--5--5--5--5--5--5--5--5--5--5--5--5--5--5--5--5--5--5--5--5--5--5--5--5--5--5--5--5--5-|
***************************************************************************************************
e|-10-9-----10----9----9---------------------------10-9-----10----9----9--------------------------|
B|------10----------10-----10------10~------------------10----------10-----10------10~------------|
G|----------------------------11-9--------------------------------------------11-9----------------|
D|------------------------------------------------------------------------------------------------|
A|------------------------------------------------------------------------------------------------|
E|------------------------------------------------------------------------------------------------|

e|------------------------------------------------------------------------------------------------|
B|------------------------------------------------------------------------------------------------|
G|-7--7--7--7--7--7--7--7--------------------------7--7--7--7--7--7--7--7--7--7--7--7--7--7--7--7-|
D|-7--7--7--7--7--7--7--7--7--7--7--7--7--7--7--7--7--7--7--7--7--7--7--7--7--7--7--7--7--7--7--7-|
A|-5--5--5--5--5--5--5--5--7--7--7--7--7--7--7--7--5--5--5--5--5--5--5--5--5--5--5--5--5--5--5--5-|
E|-5--5--5--5--5--5--5--5--5--5--5--5--5--5--5--5--5--5--5--5--5--5--5--5--5--5--5--5--5--5--5--5-|
***************************************************************************************************
e|-10-9-----10----9----9---------------------------10-9-----10-9-----10-9-----10-9----10-9----9---|
B|------10----------10-----10------10~------------------10-------10-------10------10------10------|
G|----------------------------11-9----------------------------------------------------------------|
D|------------------------------------------------------------------------------------------------|
A|------------------------------------------------------------------------------------------------|
E|------------------------------------------------------------------------------------------------|

e|------------------------------------------------|
B|------------------------------------------------|
G|-6--6--6--6--6--6--6--6--7--7--7--7--7--7--7--7-|
D|-6--6--6--6--6--6--6--6--7--7--7--7--7--7--7--7-|
A|-4--4--4--4--4--4--4--4--5--5--5--5--5--5--5--5-|
E|-4--4--4--4--4--4--4--4--5--5--5--5--5--5--5--5-|
***************************************************
e|------------------------------------------------|
B|-10-------10--------------------10~-------------|
G|----11-9--------11--9--------9------------------|
D|-------------------------12---------------------|
A|------------------------------------------------|
E|------------------------------------------------|

Outro
e|------------------------------------------------------------------------------------------------|
B|------------------------------------------------------------------------------------------------|
G|-7--7--7--7--7--7--7--7--4--4--4--4--4--4--4--4--7--7--7--7--7--7--7--7--4--4--4--4--4--4--4--4-|
D|-7--7--7--7--7--7--7--7--4--4--4--4--4--4--4--4--7--7--7--7--7--7--7--7--4--4--4--4--4--4--4--4-|
A|-5--5--5--5--5--5--5--5--2--2--2--2--2--2--2--2--5--5--5--5--5--5--5--5--2--2--2--2--2--2--2--2-|
E|-5--5--5--5--5--5--5--5--2--2--2--2--2--2--2--2--5--5--5--5--5--5--5--5--2--2--2--2--2--2--2--2-|

e|------------------------------------------------------------------------------------------------|
B|------------------------------------------------------------------------------------------------|
G|-7--7--7--7--7--7--7--7--4--4--4--4--4--4--4--4-------------------------------------------------|
D|-7--7--7--7--7--7--7--7--4--4--4--4--4--4--4--4--7--7--7--7--7--7--7--7--5--5--5--5--5--5--5--5-|
A|-5--5--5--5--5--5--5--5--2--2--2--2--2--2--2--2--7--7--7--7--7--7--7--7--5--5--5--5--5--5--5--5-|
E|-5--5--5--5--5--5--5--5--2--2--2--2--2--2--2--2--5--5--5--5--5--5--5--5--3--3--3--3--3--3--3--3-|

e|------------------------------------------------------------------------------------------------|
B|------------------------------------------------------------------------------------------------|
G|------------------------------------------------------------------------------------------------|
D|--7~--------------------------------------------------------------------------------------------|
A|--7~--------------------------------------------------------------------------------------------|
E|--5~--------------------------------------------------------------------------------------------|
Tap to rate this tab
 
# A B C D E F G H I J K L M N O P Q R S T U V W X Y Z