Song name
# A B C D E F G H I J K L M N O P Q R S T U V W X Y Z

Weezer - Undone The Sweater Song drum

Drummer: Pat Wilson
Time Signature: 4/4

						      (Play 15 Times)
C|----------------|----------------|x---------------|----------------|
R|----------------|----------------|x-x-x-x-x-x-x-x-|x-x-x-x-x-x-x-x-|
S|---------------o|o------oo---oo--|----o-------o---|----o-------o---|
F|----------------|----------o---o-|----------------|----------------|
B|----------------|----o-----------|o-------o-------|o-------o-------|
  1e+a2e+a3e+a4e+a
          	    (Play 3 Times)		      (Play 3 Times)
C|x---------------|----------------|x---------------|----------------|
R|x-x-x-x-x-x-x-x-|x-x-x-x-x-x-x-x-|x---------------|----------------|
H|----------------|----------------|--0-0-0-0-0-0-0-|0-0-0-0-0-0-0-0-|
S|------------o---|----o-------o---|----o-------o---|----o-------o---|
B|o-------o-------|o-------o-------|o-------o-------|o-------o-------|

   (Play 4 Times)		     (Play 3 Times)
C|----------------|x---------------|----------------|x---------------|
R|x-x-x-x-x-x-x-x-|x-x-x-x-x-x-x-x-|x-x-x-x-x-x-x-x-|x---------------|
H|----------------|----------------|----------------|--0-0-0-0-0-0-0-|
S|----o-------o---|------------o---|----o-------o---|----o-------o---|
B|o-------o-------|o-------o-------|o-------o-------|o-------o-------|

   (Play 6 Times)				      (Play 6 Times)
C|----------------|----------------|--------x-------|----------------|
R|----------------|----------------|--------x-------|----------------|
H|0-0-0-0-0-0-0-0-|0-0-0-0-0-0-0-0-|----------0-0-0-|0-0-0-0-0-0-0-0-|
S|----o-------o---|----o-------o--o|oooooooo----o---|----o-------o---|
F|----------------|----------------|oooooooo--------|----------------|
B|o-------o-------|o-------o-------|o-o-o-o-o-------|o-------o-------|

                                     (Play 8 Times)
C|----------------|--------x-------|----------------|------------x-x-|
R|----------------|--------x-------|----------------|------------x-x-|
H|0-0-0-0-0-0-0---|----------0-0-0-|0-0-0-0-0-0-0-0-|0-0-0-0-0-0-----|
S|----o-------o---|oooooooo----o---|----o-------o---|----o-----------|
F|-------------ggg|oooooooo--------|----------------|----------------|
B|o-------o-------|o-o-o-o-o-------|o-------o-------|o-------o---o-o-|

C|x---------------|------------x-x-|x---------------|------------x-x-|
R|x---------------|------------x-x-|x---------------|------------x-x-|
H|--0-0-0-0-0-0-0-|0-0-0-0-0-0-----|--0-0-0-0-0-0-0-|0-0-0-0-0-0-----|
S|----o-------o---|----o-----------|----o-------o---|----o-----------|
B|o-------o-------|o-------o---o-o-|o-------o-------|o-------o---o-o-|

						      (Play 6 Times)
C|x---------------|----------------|x-------x-------|----------------|
R|x---------------|----------------|x-------x-------|----------------|
H|--0-0-0-0-0-0-0-|0-0-0-0-0-0-0-0-|--0-0-0---0-0-0-|0-0-0-0-0-0-0-0-|
S|----o-------o---|----o-------o---|----o-------o---|----o-------o---|
B|o-------o-------|o-------o-------|o-o--o--o-------|o-o-----o-o-----|

				     (Play 3 Times)
C|----------------|--------x-------|----------------|
R|----------------|----------------|----------------|
H|0-0-0-0-0-0-0-0-|0-0-0-0-0-0-0-0-|0-0-0-0-0-0-0-0-|
S|----o-------o-o-|-o--o-oo----o---|----o-------o---|
B|o-o-----o-o--o-o|---o-o--o-------|o-------o-------|

  		    (Get Louder Little By Little)
C|x-x-x-x-x-x-x-x-x-x-x-x-x-x-x-x-|x-x-x-x-x-x-x-x-x-x-x-x-x-x-x-x-|
S|o---------------o-o-o-o-o-o-o-o-|o-o-o-o-o-o-o-o-o-o-o-o-o-o-o-o-|
B|o-------o-------o-------o-------|o-------o-------o-------o-------|
  1 e + a 2 e + a 3 e + a 4 e + a

C|x-x-x-x-x-x-x-x-x-x-x-x-x-x-x-x-|x-x-x-x-x-x-x-x-x-x-x-x-x-x-x-x-|
S|o-o-o-o-o-o-o-o-----------------|--------------------------------|
F|----------------o-o-o-o-o-o-o-o-|o-o-o-o-o-o-o-o-o-o-o-o-o-o-o-o-|
B|o-------o-------o-------o-------|o-------o-------o-------o-------|

C|x-xxx-xxx-xxx-xxx-xxx-xxx-xxx-xx|x-xxx-xxx-xxx-xxx-xxx-xxx-xxx-xx|
B|o-------o-------o-------o-------|o-------o-------o-------o-------|

C|x-x-x-x-x-x-x-x-x-x-x-x-x-x-x-x-|x-x-x-x-x-x-x-x-x-x-x-x-x---x---|
B|o-------o-------o-------o-------|o-------o-------o-------o---o---|

C|x-------------------------------|
R|x-------------------------------|
B|o-------------------------------|

Well That's It! Enjoy!



    _____________                        _____________
    __________                        /  /__________
	                 ____        /  /
                        /          /  /
                       /  /      /  /
                      /  /      /  /
                     /  /      /  /
                        /          /
                       /          /
                      /          /

		   WEEZER ROCKS!!!!!!!!!!!
	
Tap to rate this tab
 
# A B C D E F G H I J K L M N O P Q R S T U V W X Y Z