Guitaretab - guitar tabs
Song name
# A B C D E F G H I J K L M N O P Q R S T U V W X Y Z

Weezer - Im Your Daddy tab

---------------------------------------------------------------------------
			 I'M YOUR DADDY - Weezer
---------------------------------------------------------------------------
Tabbed by: ChazzyMcPhilips
Email: z.diddy@live.com

Tuning: Half-Step Down (Eb)

This is a fun, catchy little number of Weezer's exceptional new album, Raditude.

The verse riff goes like this. You play this 4 times, and after the last time, strum 
dead notes on the bottom 3 strings.

eb|-----------------------------------------|
Bb|-----------------------------------------|
Gb|-----------------------------------------|
Db|--5----5-5\4-3----3-3/4-5----5-5\4-3-----|
Ab|--5----5-5\4-3----3-3/4-5----5-5\4-3-----|
Eb|--3----3-3\2-1----1-1/2-3----3-3\2-1-----|

The chorus riff goes like this. I'm just going to put each chord once, because the 
pattern is very easy to figure out. You play this twice.
[ Tab from: http://www.guitaretab.com/w/weezer/203048.html ]
eb|------------------------------------|
Bb|------------------------------------|
Gb|-----------7---5-----------4---7----|
Db|---5---2---7---5---5---2---4---7----|
Ab|---5---2---5---3---5---2---2---5----|
Eb|---3---0-----------3---0------------|

Play through the verse and chorus parts again...

Then it moves on to the bridge. You play this 4 times. This may not be exact, but it 
you the idea.

eb|----------------------------------------------|
Bb|----------------------------------------------|
Gb|--4-4---4-5-5--5/7-7\5----------7-7--7/9------|
Db|--x-x---x-x-x--x/x-x\x---5-5--5-x-x--x/x------|
Ab|--2-2---2-3-3--3/5-5\3---x-x--x-5-5--5/7------|
Eb|-------------------------3-3--3---------------|

Then you just sit through the keyboard part, and then play the chorus again 'til the end 
the song.

Hope this tab helps! :) Any questions can be sent to my e-mail.


| /  slide up
| \  slide down
| h  hammer-on
| p  pull-off
| ~  vibrato
| +  harmonic
| x  Mute note
===============================================================================
Related for Im Your Daddy tab
×
Best way to learn
"Im Your Daddy"