Song name
# A B C D E F G H I J K L M N O P Q R S T U V W X Y Z

Weezer - If Youre Wondering If I Want You To I Want You To tab

There is a certain strumming pattern for the Intro and verses. 
It's down down down-up-down-up down-up down-up-up

The Intro is just one chord in that pattern
|-----|
|-----|
|--5--|
|--5--|
|--7--|
|-----|

The Verse is 3 chords in the same pattern
  D   B  C

|-----------|
|-----------|
|--5--4--5--|
|--5--4--5--|
|--7--2--3--|
|-----------|


The pre-chorus "Then the conversation stopped..." is just muting the strings

The Chorus is the same 3 chords as the verse just strummed differently in the order:
D--B--C--D--B--C--D try and figure out the strumming and timing yourself

The bridge is 

|--3--0-----------3--0--0--|
|--3--2-----------3--2--2--|
|--0--2--4--5--4--0--2--0--|
|--0--2--4--5--4--0--2--2--|
|--2--0--2--3--2--2--0--0--|
|--3--------------3--------|

It also has it's own strumming pattern

That should be all of the song!
Be sure to rate and email me at rskbeck@gmail.com!!!
send me criticizm and comments
-Rain
Tap to rate this tab
# A B C D E F G H I J K L M N O P Q R S T U V W X Y Z