Song name
# A B C D E F G H I J K L M N O P Q R S T U V W X Y Z

Weezer - Let It All Hang Out tab

This song is from the new album Ratitude, i really love this one.

Iam afraid that i don't have the lead guitar yet, but i really wanted to tab this 
one so you guys can enjoy it.`

*note* the bass is each bass tone of the power chords

Please rate/comment 

----------------------------------------------------------------------------
			     Let it all hang out - Weezer
----------------------------------------------------------------------------
Tabbed by: Tyshur (Frank H.)
Email: huib-x@hotmail.com

Tuning:E-A-D-G-B-e (standard)

First you have the lead guitar, after he played his part one time, this kicks in
(with the lead stil on the background)
Intro:
e|----------------------------------| 
B|----------------------------------|
G|------------------5-5-5-5-5-5-5-5-|
D|--3-3-3-3-5-5-5-5-5-5-5-5-5-5-5-5-|
A|--3-3-3-3-5-5-5-5-3-3-3-3-3-3-3-3-|
E|--1-1-1-1-3-3-3-3-----------------| Play 3 times

Verse 1:
e|-------------------------------------| 
B|-------------------------------------|
G|-------------5-5--------------5-5----|
D|--3-3---5-5--5-5----3-3--5-5--5-5----|
A|--3-3---5-5--3-3----3-3--5-5--3-3----|
E|--1-1---3-3---------1-1--3-3---------| Play 8 times

Pre-chorus:
e|-----------------|
B|-----------------|
G|-----------------|
D|--3-3---5-5--x-x-|
A|--3-3---5-5--x-x-|
E|--1-1---3-3--x-x-| play 1 time

Chorus:
e|------------------------------------------------------------------------|
B|------------------------------------------------------------------------|
G|--5-5-5-5-5-5-5-5-5-----------------------------------------------------|
D|--5-5-5-5-5-5-5-5-5--2-2-2-2-2-2-2-2--7-7-7-7-7-7-7-7--5-5-5-5-x-x-x-x--|
A|--3-3-3-3-3-3-3-3-3--2-2-2-2-2-2-2-2--7-7-7-7-7-7-7-7--5-5-5-5-x-x-x-x--|
E|---------------------0-0-0-0-0-0-0-0--5-5-5-5-5-5-5-5--3-3-3-3-x-x-x-x--| play 3 times (3rd time
                                                                   let the last
                                                                     chord ring and no palm muting)

Verse 2:
e|-------------------------------------| 
B|-------------------------------------|
G|-------------5-5--------------5-5----|
D|--3-3---5-5--5-5----3-3--5-5--5-5----|
A|--3-3---5-5--3-3----3-3--5-5--3-3----|
E|--1-1---3-3---------1-1--3-3---------| Play 8 times

Pre-chorus:
e|-----------------|
B|-----------------|
G|-----------------|
D|--3-3---5-5--x-x-|
A|--3-3---5-5--x-x-|
E|--1-1---3-3--x-x-| play 1 time

Chorus:
e|------------------------------------------------------------------------|
B|------------------------------------------------------------------------|
G|--5-5-5-5-5-5-5-5-5-----------------------------------------------------|
D|--5-5-5-5-5-5-5-5-5--2-2-2-2-2-2-2-2--7-7-7-7-7-7-7-7--5-5-5-5-x-x-x-x--|
A|--3-3-3-3-3-3-3-3-3--2-2-2-2-2-2-2-2--7-7-7-7-7-7-7-7--5-5-5-5-x-x-x-x--|
E|---------------------0-0-0-0-0-0-0-0--5-5-5-5-5-5-5-5--3-3-3-3-x-x-x-x--| play 3 times (3rd time
                                                                       let the last
                                                                    chord ring and no palm muting)

Brigde:
e|------------------| Play 1 time ringing     e|------------------| Then 1 time palm muting the 
B|------------------| the full chord, then    B|------------------| full chord,
G|--5---------------| play the bass tone      G|--5---------------|playing each chord 16 times.
D|--5---2---7---5---| palm muted 15 times.    D|--5---2---7---5---|
A|--3---2---7---5---|                         A|--3---2---7---5---|
E|------0---5---3---|                         E|------0---5---3---| 


Chorus:
e|------------------------------------------------------------------------|
B|------------------------------------------------------------------------|
G|--5-5-5-5-5-5-5-5-5-----------------------------------------------------|
D|--5-5-5-5-5-5-5-5-5--2-2-2-2-2-2-2-2--7-7-7-7-7-7-7-7--5-5-5-5-x-x-x-x--|
A|--3-3-3-3-3-3-3-3-3--2-2-2-2-2-2-2-2--7-7-7-7-7-7-7-7--5-5-5-5-x-x-x-x--|
E|---------------------0-0-0-0-0-0-0-0--5-5-5-5-5-5-5-5--3-3-3-3-x-x-x-x--| play 4 times (3rd time
                                                                         let the last
                                                                   chord ring and no palm muting)

| /  slide up
| \  slide down
| h  hammer-on
| p  pull-off
| ~  vibrato
| +  harmonic
| x  Mute note
============================================================================
Tap to rate this tab
 
# A B C D E F G H I J K L M N O P Q R S T U V W X Y Z