Song name
# A B C D E F G H I J K L M N O P Q R S T U V W X Y Z

Weezer - Turn Me Round tab

-------------------------------------------------------------------------------
			     Turn Me Round - Weezer
-------------------------------------------------------------------------------
Tabbed by: Sanderson Giudice Tavares Junior (Juninho2v)
Email: sandersin.junior@hotmail.com

Tuning: Standard (EADGBe)

Verse / Chorus:
e|---------------------------------------------------------------|
B|---------------------------------------------------------------|
G|----------------5-5-5-5-5-----------------7-7-7-7-7------------|
D|---3-3-3-3-3----5-5-5-5-5----5-5-5-5-5----7-7-7-7-7------------|
A|---3-3-3-3-3----3-3-3-3-3----5-5-5-5-5----5-5-5-5-5------------|
E|---1-1-1-1-1-----------------3-3-3-3-3-------------------------|

Just play this pattern over all verses and choruses, but pay attention
to the fact that in the choruses, the notes are played Staccato (dead)
4 times each, with the end being played normally and the addition of
a whole-step slide to an E power chord :D

Bridge:
e|---------------------------------------------------------------|
B|---------------------------------------------------------------|
G|---5----7------------------------------------------------------|
D|---5----7------------------------------------------------------|
A|---3----5------------------------------------------------------|
E|---------------------------------------------------------------|

Just Play these two chords letting them ring 3 times...on the fourth
just continually strums and build up rhythm with the song :D

Haven't figured out the solo yet, when (and if) I do, I'll update this tab :D

Any problems, suggestions or complaints (as well as love/hate mails!)
can be sent to my e-mail.
Tap to rate this tab
# A B C D E F G H I J K L M N O P Q R S T U V W X Y Z