Song name
# A B C D E F G H I J K L M N O P Q R S T U V W X Y Z

Weezer - Trippin Down The Freeway tab

-------------------------------------------------------------------------------
			     Trippin' Down The Freeway - Weezer
-------------------------------------------------------------------------------
Tabbed by:Sanderson Giudice Tavares Junior (Juninho2v)
Email:sandersin.junior@hotmail.com         (Mail me for any complaints or suggestions)

Tuning: Standard (EADGBe)

Verses: Simply a C#5, B5 pattern :D

e|-----------------------------------------------|
B|-----------------------------------------------|     Just repeat this pattern
G|---6-6-6-6-6-6-6-6----4-4-4-4-4-4-4-4----------|     during all the verses and
D|---6-6-6-6-6-6-6-6----4-4-4-4-4-4-4-4----------|     the guitar solo, it's fun
A|---4-4-4-4-4-4-4-4----2-2-2-2-2-2-2-2----------|     and easy :D
E|-----------------------------------------------|

Chorus:
e|-------------------------------------------------------------------------------|
B|-------------------------------------------------------------------------------|
G|-----------------------------------------6-6-6-6-6-6-6-6-----------------------|
D|---4-4-4-4-4-4-4-4----6-6-6-6-6-6-6-6----6-6-6-6-6-6-6-6----8-8-8-8-8-8-8-8----|
A|---4-4-4-4-4-4-4-4----6-6-6-6-6-6-6-6----4-4-4-4-4-4-4-4----8-8-8-8-8-8-8-8----|
E|---2-2-2-2-2-2-2-2----4-4-4-4-4-4-4-4-----------------------6-6-6-6-6-6-6-6----|

On the last part of the chorus don't play the last set of notes (A#5).
Also play the chorus part in the outro and end on some nicely played C#5.

I couldn't tab out the lead guitar yet, so if I ever get it, I'll update this tab,
I hope you enjoy playing along to this amazing song, any problems, complaints
and suggestions (as well as love and hate mails :D) E-mail me.


Tap to rate this tab
 
# A B C D E F G H I J K L M N O P Q R S T U V W X Y Z