Song name
# A B C D E F G H I J K L M N O P Q R S T U V W X Y Z

Weezer - Put Me Back Together tab

Artist: Weezer
Song: Put Me Back Together
Album: Raditude
Released: 2009
tabbed by: necriononguitar
e-mail: tim.rathgen@gmx.de (no spam pls)


Tuning: Half-Step Down


Intro:
Guitar 1 (piano playing the same)
E--------------------------------------------------|
B--------------------------------------------------|
G--9-9-9-9-9-9-9-9--9-9-9-9-9-9-9-9----------------|
D--9-9-9-9-9-9-9-9--9-9-9-9-9-9-9-9----------------| (.=palm-muted)
A--------------------------------------------------|
E--------------------------------------------------|
   . . . . . . . .  . . . . .


Guitar 2
E-------------------------------------------------|
B-------------------------------------------------|
G-------------------------------------------------|
D---9-9-9-9-9-9-9-9--9-9-9-9-9-9-9-9--------------|
A---7-7-7-7-7-7-7-7--7-7-7-7-7-7-7-7--------------|
E-------------------------------------------------|
    . . . . . . . .  . . . . .


Verse:
Guitar 1
E--------------------------------------------------------------------------|
B--------------------------------------------------------------------------|
G--9-9-9-9-9-9-9-9--8-8-8-8-8-8-8-8--9-9-9-9-9-9-9-9--9-9-9-9-9-9-9-9------|
D--9-9-9-9-9-9-9-9--9-9-9-9-9-9-9-9--9-9-9-9-9-9-9-9--9-9-9-9-9-9-9-9------|
A--------------------------------------------------------------------------|
E--------------------------------------------------------------------------|
   . . . . . . . .  . . . . . . . .  . . . . . . . .  . . . . . . . .

Guitar 2
E-------------------------------------------------------------------------|
B-------------------------------------------------------------------------|
G-------------------------------------------------------------------------|
D--9-9-9-9-9-9-9-9--------------------------------------------------------|
A--7-7-7-7-7-7-7-7--9-9-9-9-9-9-9-9--7-7-7-7-7-7-7-7--7-7-7-7-7-7-7-7-----|
E-------------------7-7-7-7-7-7-7-7--5-5-5-5-5-5-5-5--5-5-5-5-5-5-5-5-----|
   . . . . . . . .  . . . . . . . .  . . . . . . . .  . . . . . . . .

Guitar 1
E--------------------------------------------------------------------------|
B--------------------------------------------------------------------------|
G--9-9-9-9-9-9-9-9--8-8-8-8-8-8-8-8--9-9-9-9-9-9-9-9--9-9-9-9-9-9-9-9------|
D--9-9-9-9-9-9-9-9--9-9-9-9-9-9-9-9--9-9-9-9-9-9-9-9--9-9-9-9-9-9-9-9------|
A--------------------------------------------------------------------------|
E--------------------------------------------------------------------------|
   . . . . . . . .  . . . . . . . .  . . . . . . . .  . . . . . . . .

Guitar 2
E-------------------------------------------------------------------------|
B-------------------------------------------------------------------------|
G-------------------------------------------------------------------------|
D--9-9-9-9-9-9-9-9--------------------------------------------------------|
A--7-7-7-7-7-7-7-7--9-9-9-9-9-9-9-9--7-7-7-7-7-7-7-7--7-7-7-7-6-6-6-6-----|
E-------------------7-7-7-7-7-7-7-7--5-5-5-5-5-5-5-5--5-5-5-5-4-4-4-4-----|
   . . . . . . . .  . . . . . . . .  . . . . . . . .  . . . . . . . .


Pre-Chorus:
Guitar 1
E--------------------------------------------------------------------------|
B--------------------------------------------------------------------------|
G--9-9-9-9-9-9-9-9--8-8-8-8-8-8-8-8--9-9-9-9-9-9-9-9--9-9-9-9-9-9-9-9------|
D--9-9-9-9-9-9-9-9--9-9-9-9-9-9-9-9--9-9-9-9-9-9-9-9--9-9-9-9-9-9-9-9------|
A--------------------------------------------------------------------------|
E--------------------------------------------------------------------------|
   . . . . . . . .  . . . . . . . .  . . . . . . . .  . . . . . . . .

Guitar 2
E-------------------------------------------------------------------------|
B-------------------------------------------------------------------------|
G-------------------------------------------------------------------------|
D-------------------------------------------------------------------------|
A--4-4-4-4-4-4-4-4--4-4-4-4-4-4-4-4--7-7-7-7-7-7-7-7--7-7-7-7-7-7-7-7-----|
E--2-2-2-2-2-2-2-2--2-2-2-2-2-2-2-2--5-5-5-5-5-5-5-5--5-5-5-5-5-5-5-5-----|
   . . . . . . . .  . . . . . . . .  . . . . . . . .  . . . . . . . .


Guitar 1
E--------------------------------------------------------------------------|
B--------------------------------------------------------------------------|
G--9-9-9-9-9-9-9-9--8-8-8-8-8-8-8-8--9-9-9-9-9-9-9-9--9-9-9-9-9-9-9-9------|
D--9-9-9-9-9-9-9-9--9-9-9-9-9-9-9-9--9-9-9-9-9-9-9-9--9-9-9-9-9-9-9-9------|
A--------------------------------------------------------------------------|
E--------------------------------------------------------------------------|
   . . . . . . . .  . . . . . . . .  . . . . . . . .  . . . . . . . .

Guitar 2
E-------------------------------------------------------------------------|
B-------------------------------------------------------------------------|
G-------------------------------------------------------------------------|
D-------------------------------------------------------------------------|
A--4-4-4-4-4-4-4-4--4-4-4-4-4-4-4-4--7-7-7-7-7-7-7-7--9-9-9-9-9-9-9-9-----|
E--2-2-2-2-2-2-2-2--2-2-2-2-2-2-2-2--5-5-5-5-5-5-5-5--7-7-7-7-7-7-7-7-----|
   . . . . . . . .  . . . . . . . .  . . . . . . . .  . . . . . . . .


Chorus:
Guitar 1
E----------------------------------------------------------------------------|
B----------------------------------------------------------------------------|
G--9-9-9-9-9-9-9-9--9-9-9-9-9-9-9-9--9-9-9-9-9-9-9-9--8-8-8-8-8-8-8-8--------|
D--9-9-9-9-9-9-9-9--9-9-9-9-9-9-9-9--9-9-9-9-9-9-9-9--9-9-9-9-9-9-9-9--------|
A----------------------------------------------------------------------------|
E--------------------------------------------------------------------------\-|
   . . . . . . . .  . . . . . . . .  . . . . . . . .  . . . . . . . .       \
                                                                           x2
Guitar 2                                                                    /
E-------------------------------------------------------------------------| /
B-------------------------------------------------------------------------|
G-------------------------------------------------------------------------|
D--6-6-6-6-6-6-6-6-------------------9-9-9-9-9-9-9-9----------------------|
A--4-4-4-4-4-4-4-4--7-7-7-7-7-7-7-7--7-7-7-7-7-7-7-7--9-9-9-9-9-9-9-9-----|
E-------------------5-5-5-5-5-5-5-5-------------------7-7-7-7-7-7-7-7-----|
   . . . . . . . .  . . . . . . . .  . . . . . . . .  . . . . . . . .


Verse:
Guitar 1+2 play the same stuff (i actually cant hear guiar 1, but i think its still playing)

Guitar 3
E-------------------------------------------------------|
B-----5--------5---------5------2---------4--------4----|
G-------4--------4-----------------4--------4-----------|
D--2--------2---------2------2---------2--------2-------|  (repeat)
A-------------------------------------------------------|
E-------------------------------------------------------|


Pre-Chorus:
Guitar 1+2 still playing the same stuff

Guitar 3
E--------------------------------------------------------|
B-----2-------2-------2--------2--------2-------2--------|
G-------2-------2----------------2--------2--------------|
D--4-------4-------4--------4--------4-------4-----------|
A--------------------------------------------------------|
E--------------------------------------------------------|

E-------------------------------------------------------|
B------5--------5--------5--------5--------5-------5----|
G--------4--------4-----------------4--------4----------|
D---2--------2--------2--------2--------2--------2------|
A-------------------------------------------------------|
E-------------------------------------------------------|

E-------------------------------------------------------|
B------2--------2--------2--------2---------2--------2--|
G--------2--------2-----------------2---------2---------|
D---4--------4--------4--------4---------4--------4-----|
A-------------------------------------------------------|
E-------------------------------------------------------|

E------------------------------------|
B------5--------5--------5-----------|
G--------4--------4------------------|
D---2--------2--------2------4~------|
A------------------------------------|
E------------------------------------|


Guiar 4
E--------2---4-4---2------2-4-2--------------|
B--2--5----------------5---------5-----------|
G--------------------------------------------|
D--------------------------------------------|  x3
A--------------------------------------------|
E--------------------------------------------|
   .  .  .   . .   .   .  . . .  .


E---4-4---2-2--------2-----2-------------|
B---------------5-5----------------------|
G----------------------------------------|
D----------------------------------------|
A----------------------------------------|
E----------------------------------------|
    . .   . .   . .  .


Chorus:
Some Guitar
E-------------------------------------------------------------------------|
B-------------------------------------------------------------------------|
G---6-6-6-6-6-6-6-6-------------------9-9-9-9-9-9-9-9---------------------|
D---6-6-6-6-6-6-6-6--7-7-7-7-7-7-7-7--9-9-9-9-9-9-9-9--9-9-9-9-9-9-9-9----| x2
A---4-4-4-4-4-4-4-4--7-7-7-7-7-7-7-7--7-7-7-7-7-7-7-7--9-9-9-9-9-9-9-9----|
E--------------------5-5-5-5-5-5-5-5-------------------7-7-7-7-7-7-7-7----|

E---------------------------------------------------------------------------|
B---------------------------------------------------------------------------|
G-------------------------------------9-9-9-9-9-9-9-9-----------------------|
D---6-6-6-6-6-6-6-6--7-7-7-7-7-7-7-7--9-9-9-9-9-9-9-9--9-9-9-9-9-9-9-9------|
A---6-6-6-6-6-6-6-6--7-7-7-7-7-7-7-7--7-7-7-7-7-7-7-7--9-9-9-9-9-9-9-9------|
E---4-4-4-4-4-4-4-4--5-5-5-5-5-5-5-5-------------------7-7-7-7-7-7-7-7------|

E-------------------------------------------------------------------------|
B-------------------------------------------------------------------------|
G---6-6-6-6-6-6-6-6-------------------9-9-9-9-9-9-9-9---------------------|
D---6-6-6-6-6-6-6-6--7-7-7-7-7-7-7-7--9-9-9-9-9-9-9-9--9-9-9-9-9-9-9-9----|
A---4-4-4-4-4-4-4-4--7-7-7-7-7-7-7-7--7-7-7-7-7-7-7-7--9-9-9-9-9-9-9-9----|
E--------------------5-5-5-5-5-5-5-5-------------------7-7-7-7-7-7-7-7----|


Bridge:
some guitar
E---7-----------------7-------7-------7------------|
B-----9----------9------9-------9-------9----------|
G-------9---8h9-----------9-------9-------9--------|
D--------------------------------------------------| x3
A--------------------------------------------------|
E--------------------------------------------------|


E--------------------------------------------------------------------------|
B--------------------------------------------------------------------------|
G---7-7-7-7-7-7-7-7--7-7-7-7-7-7-7-7---------------------------------------|
D---7-7-7-7-7-7-7-7--7-7-7-7-7-7-7-7--9-9-9-9-9-9-9-9--9-9-9-9-9-9-9-9-----|
A---5-5-5-5-5-5-5-5--5-5-5-5-5-5-5-5--9-9-9-9-9-9-9-9--9-9-9-9-9-9-9-9-----|
E-------------------------------------7-7-7-7-7-7-7-7--7-7-7-7-7-7-7-7-----|
    . . . . . . . .  . . . . . . . .  . . . . . . . .  . . . .
(getting louder)


Chorus:
Some Guitar
E----------------------------------------------------------------------------|
B----------------------------------------------------------------------------|
G----------------------------------------------------------------------------|
D--(NO GUITAR)---9-9-9-9-9-9-9-9--11-11-11-11-11-11-11-11--7-7-7-7-7-7-7-7---|
A----------------9-9-9-9-9-9-9-9--11-11-11-11-11-11-11-11--7-7-7-7-7-7-7-7---|
E----------------7-7-7-7-7-7-7-7--9--9--9--9--9--9--9--9---5-5-5-5-5-5-5-5---|


E----------------------------------------------------------------------------|
B----------------------------------------------------------------------------|
G-9-9-9-9-9-9-9-9------------------------------------------------------------|
D-9-9-9-9-9-9-9-9--9-9-9-9-9-9-9-9--11-11-11-11-11-11-11-11--7-7-7-7-7-7-7-7-|
A-7-7-7-7-7-7-7-7--9-9-9-9-9-9-9-9--11-11-11-11-11-11-11-11--7-7-7-7-7-7-7-7-|
E------------------7-7-7-7-7-7-7-7--9--9--9--9--9--9--9--9---5-5-5-5-5-5-5-5-|
  x3

E---------------------------------------------------------------------------|
B---------------------------------------------------------------------------|
G-------------------------------------9-9-9-9-9-9-9-9-----------------------|
D---6-6-6-6-6-6-6-6--7-7-7-7-7-7-7-7--9-9-9-9-9-9-9-9--9-9-9-9-9-9-9-9------|
A---6-6-6-6-6-6-6-6--7-7-7-7-7-7-7-7--7-7-7-7-7-7-7-7--9-9-9-9-9-9-9-9------|
E---4-4-4-4-4-4-4-4--5-5-5-5-5-5-5-5-------------------7-7-7-7-7-7-7-7------|


E--------------------------------------------------------------|
B--------------------------------------------------------------|
G---6-6-6-6-6-6-6-6-------------------9-9-9-9-9-9-9-9---9~-----|
D---6-6-6-6-6-6-6-6--7-7-7-7-7-7-7-7--9-9-9-9-9-9-9-9---9~-----|
A---4-4-4-4-4-4-4-4--7-7-7-7-7-7-7-7--7-7-7-7-7-7-7-7---7~-----|
E--------------------5-5-5-5-5-5-5-5---------------------------|


and thats it. please rate adn leave a comment.

cheers...
Tap to rate this tab
 
# A B C D E F G H I J K L M N O P Q R S T U V W X Y Z