Song name
# A B C D E F G H I J K L M N O P Q R S T U V W X Y Z

Weezer - Im Your Daddy tab

Artist: Weezer
Song: Im Your Daddy
Album: Raditude
Released: 2009
tabbed by: necriononguitar
e-mail: tim.rathgen@gmx.de (no spam pls)

Tuning: Standard

Intro+Verse: (Guitar starts at 0:03)
E-------------------------------------------------|
B-------------------------------------------------|
G-------------------------------------------------|
D--5---5-5-4-3---3-3-4-5---5-5-4-3----------------|
A--5---5-5-4-3---3-3-4-5---5-5-4-3----------------|
E--3---3-3-2-1---1-1-2-3---3-3-2-1----------------|


Chorus: (0:30)
Guitar 1
E---x-x-x-x-x---------------------------------------------------------|
B---x-x-x-x-x---------------------------------------------------------|
G---x-x-x-x-x-----------------------------------7-7-7-7-7-7-7-7-------|
D---x-x-x-x-x-5-5-5-5-5-5-5-5--2-2-2-2-2-2-2-2--7-7-7-7-7-7-7-7-------|
A---x-x-x-x-x-5-5-5-5-5-5-5-5--2-2-2-2-2-2-2-2--5-5-5-5-5-5-5-5-------|
E---x-x-x-x-x-3-3-3-3-3-3-3-3--0-0-0-0-0-0-0-0------------------------|

E-----------------------------------------------------------|
B-----------------------------------------------------------|
G---5-5-5-5-5-5-5-5-----------------------------------------|
D---5-5-5-5-5-5-5-5-----5-5-5-5-5-5-5-5--2-2-2-2-2-2-2-2----|
A---3-3-3-3-3-3-3-3-----5-5-5-5-5-5-5-5--2-2-2-2-2-2-2-2----|
E-----------------------3-3-3-3-3-3-3-3--0-0-0-0-0-0-0-0----|

E-------------------------------------------------|
B-------------------------------------------------|
G--4-4-4-4-4-4-4-4--4/7-7-7-7-7-7-7---------------|
D--4-4-4-4-4-4-4-4--4/7-7-7-7-7-7-7---------------| (play chorus 2 times)
A--2-2-2-2-2-2-2-2--2/5-5-5-5-5-5-5---------------|
E-------------------------------------------------|

Guitar 2
E----------------------------------------------------------------------------|
B-x-7/8-8-8-8-8-8-8--8-8-8-8-8-8-8-8----7/8-8-8-8-8-8-8--8-8-8-8-8-8-8-8-----|
G----------------------------------------------------------------------------|
D----------------------------------------------------------------------------|
A----------------------------------------------------------------------------|
E----------------------------------------------------------------------------|

E-----------------------------------------------------------------------------|
B--7/8-8-8-8-8-8-8--8-8-8-8-8-8-8-8---7-7-7-7-7-7-7-7/10-10-10-10-10-10-10-10-|
G-----------------------------------------------------------------------------|
D-----------------------------------------------------------------------------|
A-----------------------------------------------------------------------------|
E-----------------------------------------------------------------------------|

---REPEAT VERSE---

Chorus: (1:26)
Guitar 1
E---x-x-x-x---------------------------------------------------------|
B---x-x-x-x---------------------------------------------------------|
G---x-x-x-x-----------------------------------7-7-7-7-7-7-7-7-------|
D---x-x-x-x-5-5-5-5-5-5-5-5--2-2-2-2-2-2-2-2--7-7-7-7-7-7-7-7-------|
A---x-x-x-x-5-5-5-5-5-5-5-5--2-2-2-2-2-2-2-2--5-5-5-5-5-5-5-5-------|
E---x-x-x-x-3-3-3-3-3-3-3-3--0-0-0-0-0-0-0-0------------------------|

E-----------------------------------------------------------|
B-----------------------------------------------------------|
G---5-5-5-5-5-5-5-5-----------------------------------------|
D---5-5-5-5-5-5-5-5-----5-5-5-5-5-5-5-5--2-2-2-2-2-2-2-2----|
A---3-3-3-3-3-3-3-3-----5-5-5-5-5-5-5-5--2-2-2-2-2-2-2-2----|
E-----------------------3-3-3-3-3-3-3-3--0-0-0-0-0-0-0-0----|

E-------------------------------------------------|
B-------------------------------------------------|
G--4-4-4-4-4-4-4-4--4/7-7-7-7-7-7-7---------------|
D--4-4-4-4-4-4-4-4--4/7-7-7-7-7-7-7---------------| (play chorus 2 times)
A--2-2-2-2-2-2-2-2--2/5-5-5-5-5-5-5---------------|
E-------------------------------------------------|


Bridge: (1:57)
Guitar 1
E------------------------------------------------------------|
B------------------------------------------------------------|
G---4-4---4--4/5---5--5-5/7--------------7-7---7-7/8--5------|
D---x-x---x--x/x---x--x-x/x----5-5---5---x-x---x-x/x--x------| x4
A---2-2---2--2/3---3--3-3/5----x-x---x---5-5---5-5/7--3------|
E------------------------------3-3---3-----------------------|

Guitar 2 (starts playing at the last time)
E---------------------------------------------------------------------------|
B--8-8-8-8-8-8-8-8--8-8-8-8-8-8-8-8--8-8-8-8-8-8-8-8--8-8-8-8-8-8-8-8-------|
G---------------------------------------------------------------------------|
D---------------------------------------------------------------------------|
A---------------------------------------------------------------------------|
E---------------------------------------------------------------------------|


Break: (NO GUITAR)


---REPEAT CHORUS TWICE---


and done. please rate and leave a comment. thanks

cheers
Tap to rate this tab
 
# A B C D E F G H I J K L M N O P Q R S T U V W X Y Z