Song name
# A B C D E F G H I J K L M N O P Q R S T U V W X Y Z

Weezer - Hold Me tab

--------------------------------------------------------------------------
			     HOLD ME - Weezer
--------------------------------------------------------------------------
Tabbed by: Jai
Email: Jai.Kansal@gmail.com

I looked at the other tabs for this song and noticed that the intros were 
wrong, so I figured out the right way to play them and then just figured out 
the rest of the song.  And the solo is right but is missing a tiny bit 
because in the song, there are 3 guitars playing, but I arranged it for 2. 
 Enjoy this tab, it's a good song and pretty fun to play.  And if you find 
any errors, please e-mail me or post a correction comment.  Thanks

Tuning: e flat (half step down)
   
 Intro (1st guitar) (clean)
|------------------------------------|
|----------------------2-------4--5--|
|-----1--------4------------------4--|
|------------1---1---2---2---4-------|
|---2---2----------------------------|
|-0--------4-------5-------7---------|

 Verse: Play 9 times
|----------------------------------|
|----------------------2-------4---|
|-----1--------4-------------------|
|------------1---1---2---2---4-----|
|---2---2--------------------------|
|-0--------4-------5-------7-------|

 Chorus (2nd guitar) 4 times        At end of 4th time   
|-----------------------------|     |-----|
|-----------------------------|     |-----|
|----------------6--6---------|     |-----|
|--2--2---6--6---6--6---7--7--|     |--2--|
|--2--2---6--6---4--4---7--7--|     |--2--|
|--0--0---4--4---4--4---5--5--|     |--0--|

 Chorus (1st guitar)
|----------------------------------|
|----------------------------------|
|----------------------------------|
|-------------------------9b-9b----|
|----------------------------------|
|----------------------------------|

|----------------------------------|
|---9------------------------------|
|---11b----------9-----------------|
|-------------------------9b-9b----|
|----------------------------------|
|----------------------------------|

|----------------------------------|
|----------------------------------|
|--9-9-9-9-8-8-8-8-9-9-9-9-9-------|
|----------------------------9-9-9-|
|----------------------------------|
|----------------------------------|

 2nd Verse, (2nd guitar)   Play 8 times
|------------------------------------|
|----------------------2-------4--5--|
|-----1--------4------------------4--|
|------------1---1---2---2---4-------|
|---2---2----------------------------|
|-0--------4-------5-------7---------|

 2nd Verse, (1st guitar) (Play whole thing 2 times)
|-------------------------------------|
|-------------------------------------|
|-9--------8----------8-9-----13-14-13|
|------------------11-----9-----------|
|-------------------------------------|
|-------------------------------------|

|-------------------------------------|
|-------------------------------------|
|-------------------------------------|
|----14---13-11-9--11-9-9--14-13-13---|
|-------------------------------------|
|-------------------------------------|

|-------------------------------------|
|-------------------------------------|
|--------------------13-14-13---------|
|----14-13--11-13-14------------------|
|-------------------------------------|
|-------------------------------------|

|-------------------------------------|
|-------------------------------------|
|-------------------------------------|
|-----14---13-11-9---11-9-9-----------|
|---------------------------11-12-11--|
|-------------------------------------|



 Chorus (2nd guitar)  4 times
|-----------------------------|    
|-----------------------------|     
|----------------6--6---------|    
|--2--2---6--6---6--6---7--7--|    
|--2--2---6--6---4--4---7--7--|     
|--0--0---4--4---4--4---5--5--|     

 Chorus (1st guitar)
|----------------------------------|
|----------------------------------|
|----------------------------------|
|-------------------------9b-9b----|
|----------------------------------|
|----------------------------------|

|----------------------------------|
|---9------------------------------|
|---11b----------9-----------------|
|-------------------------9b-9b----|
|----------------------------------|
|----------------------------------|

|----------------------------------|
|----------------------------------|
|--9-9-9-9-8-8-8-8-9-9-9-9-9-------|
|----------------------------9-9-9-|
|----------------------------------|
|----------------------------------|


 Bridge (2nd guitar)
|-----------------------------------------|
|-----------------------------------------|
|--6-6-6-6-------------6-6-6-6------------|
|--6-6-6-6---6-6-6-6---6-6-6-6---6-6-6-6--|
|--4-4-4-4---6-6-6-6---4-4-4-4---6-6-6-6--|
|--4-4-4-4---4-4-4-4---4-4-4-4---4-4-4-4--|

|-------------------------------------------------------------------|
|-------------------------------------------------------------------|
|-------------------------------------------------------------------|
|--7-7-7-7---2-2--9-9--2-2--9-9---2-2-2-2-2-2-2-2--9-9-9-9-9-9-9-9--|
|--7-7-7-7---2-2--9-9--2-2--9-9---2-2-2-2-2-2-2-2--9-9-9-9-9-9-9-9--|
|--5-5-5-5---0-0--7-7--0-0--7-7---0-0-0-0-0-0-0-0--7-7-7-7-7-7-7-7--|

 Solo (1st guitar)
|--12-------12-11-12-----11-12-------------------|
|----12-------------12--------12---10-9-7h9h10p7-|
|------------------------------------------------|
|------------------------------------------------|
|------------------------------------------------|
|------------------------------------------------|

|-------------------------------------------|
|--12-12-12-10-9-10---10-9-7-9--------------|
|-------------------------------------------|
|-------------------------------------------|
|-------------------------------------------|
|-------------------------------------------|

|-------------------------------------------|
|--12-12-12-10-9-10---10-9-7-9--------------|
|-------------------------------------------|
|-------------------------------------------|
|-------------------------------------------|
|-------------------------------------------|

 2nd guitar during solo  (play 4 times)
|-----------------------------|
|-----------------------------|
|-----------------------------|
|---2-2--6-6--7-7--9-9--------|
|---2-2--6-6--7-7--9-9--------|
|---0-0--4-4--5-5--7-7--------|

 Chorus (2nd guitar)  8 times
|-----------------------------|    
|-----------------------------|     
|----------------6--6---------|    
|--2--2---6--6---6--6---7--7--|    
|--2--2---6--6---4--4---7--7--|     
|--0--0---4--4---4--4---5--5--|     

 Chorus (1st guitar)
|----------------------------------|
|----------------------------------|
|----------------------------------|
|-------------------------9b-9b----|
|----------------------------------|
|----------------------------------|

|----------------------------------|
|---9------------------------------|
|---11b----------9-----------------|
|-------------------------9b-9b----|
|----------------------------------|
|----------------------------------|

|----------------------------------|
|----------------------------------|
|--9-9-9-9-8-8-8-8-9-9-9-9-9-9-9-9-|
|----------------------------------|
|----------------------------------|
|----------------------------------|

|-----------------------------------|
|-----------------------------------|
|--9-9-9-9-8-8-8-8-9-9-9-9-11-11-9-9|
|-----------------------------------|
|-----------------------------------|
|-----------------------------------|

|------------------------------------|
|------------------------------------|
|--9-9-9-9-8-8-8-8-9-9-9-9-11-11-9-9-|
|------------------------------------|
|------------------------------------|
|------------------------------------|

|----------------------------------|
|----------------------------------|
|--9-9-9-9-8-8-8-8-9-9-9-9-9-9-9-9-|
|----------------------------------|
|----------------------------------|
|----------------------------------|

|----------------------------------|
|--9-9-9-9-8-8-8-8-9-9-9-9-9-9-8-8-|
|----------------------------------|
|----------------------------------|
|----------------------------------|
|----------------------------------|

 Outro (2nd guitar) (clean) play twice
|------------------------------------|
|----------------------2-------4--5--|
|-----1--------4------------------4--|
|------------1---1---2---2---4-------|
|---2---2----------------------------|
|-0--------4-------5-------7---------|

| /  slide up
| \  slide down
| h  hammer-on
| p  pull-off
| ~  vibrato
| +  harmonic
| x  Mute note
=====================================================================
Tap to rate this tab
# A B C D E F G H I J K L M N O P Q R S T U V W X Y Z