Song name
# A B C D E F G H I J K L M N O P Q R S T U V W X Y Z

Weezer - In The Mall tab

			     IN THE MALL - Weezer
-------------------------------------------------------------------------
Tabbed by: greg
Email: gregush1234@msn.com

Tuning: Standard

This is my tab for this new song from Raditude. 
It sounds pretty correct, but the solo thing is weird so i don't know how to play that.

Intro/Verse 1
e|---------------------------------------|
B|---------------------------------------|
G|---------------------------------------|
D|--5-4-2--2-2-2--5-4-2--2-2-2-----------| x8
A|--5-4-2--2-2-2--5-4-2--2-2-2-----------|
E|--3-2-0--0-0-0--3-2-0--0-0-0-----------|

Chorus
e|---------------------------------------------------------|
B|---------------------------------------------------------|
G|---------------------------------------------------------|
D|--5--5--5--5--7--7--7--7-----5-4-2--2-2-2--5-4-2--2-2-2--| x8
A|--5--5--5--5--7--7--7--7-----5-4-2--2-2-2--5-4-2--2-2-2--|
E|--3--3--3--3--5--5--5--5-----3-2-0--0-0-0--3-2-0--0-0-0--|

And after the second time you do the chorus, add this:
e|-------------------------------|
B|-------------------------------|
G|-------------------------------|
D|--5-4-2--2-2-2--5-4-2--2-2-2---|
A|--5-4-2--2-2-2--5-4-2--2-2-2---|
E|--3-2-0--0-0-0--3-2-0--0-0-0---|

Verse 2
e|-----------------------------------|
B|-----------------------------------|
G|-----------------------------------|
D|--5-4-2--2-2-2--5-4-2--2-2-2-------| x8
A|--5-4-2--2-2-2--5-4-2--2-2-2-------|
E|--3-2-0--0-0-0--3-2-0--0-0-0-------|

Chorus 2 - Same as first chorus

Bridge
e|--------------------------------------------------------|
B|--------------------------------------------------------|
G|--5------7------5------7--------------------9-----------|
D|--5-[x8]-7-[x8]-5-[x8]-7-[x8]-7------9------9-[x16]-9~--|
A|--3------5------3------5------7-[x8]-9-[x8]-7-------9~--|
E|--3------5------3------5------5------7------7-------7~--|

and then this along with the solo:
e|------------------|
B|------------------|
G|------------------|
D|--5-4-2--2-2-2----| x10
A|--5-4-2--2-2-2----|
E|--3-2-0--0-0-0----|

and the chorus again 
and then the end is the same riff as the verse/intro

And thats it. Sorry i didn't tab the solo thing but whatever.
Tap to rate this tab
 
# A B C D E F G H I J K L M N O P Q R S T U V W X Y Z