Song name
# A B C D E F G H I J K L M N O P Q R S T U V W X Y Z

Weezer - Troublemaker tab

e|--------------------| To play this main riff, do an A barre chord and move 
B|--------------------|both your ring and pinky finger down one string.Repeat
G|--6--XX--7--7-7--X--|      this until you reach the part where Rivers says 
D|--7--XX--7--7-7--X--|x31    "How's this for art and crafts". Then you play
A|--7--XX--5--5-5--X--|                                        /
E|--5--XX--5--5-5--X--|                                       /
                                                             /
e|----------------------------------------------------|     /
B|----------------------------------------------------|    /
G|--6--XX--7--7-7--X--6--55-55-55-55-55-55-55-55-55-55|   /
D|--7--XX--7--7-7--X--7-------------------------------|
A|--7--XX--5--5-5--X--7-------------------------------|                         
E|--5--XX--5--5-5--X--5-------------------------------|

 Then you repeat the main riff about 8 times. Then you play.
e|--5--5--5--5--5--5--5--5--5--5--5--5--5--5--5--5--|
B|--------------------------------------------------|
G|--------------------------------------------------|
D|--------------------------------------------------|
A|--------------------------------------------------|
E|--------------------------------------------------|

Next you go back to the riff and play through the chorus. Then you to play the 
bridge. Which is partially palm muted. It goes...
e|-----------------------------------------------------------------------|
B|-----------------------------------------------------------------------|
G|-----------------------------------------------------------------------|
D|-----------------------------------------------------------------------|
A|--------------------------------7-7-7-7-7-7-7-7-8-8-8-8-8-8-8-8-9-9-9-9|
E|5-5-5-5-5-5-5-5-5-5-5-5-5-5-5-5-5-5-5-5-5-5-5-5-5-5-5-5-5-5-5-5-5-5-5-5|


e|-----------------------------------------------------------------------|
B|-----------------------------------------------------------------------|
G|-----------------------------------------------------------------------|
D|-----------------------------------------------------------------------|
A|9-9-9-9-10101010101010109-9-9-9-9-9-9-9-8-8-8-8-8-8-8-8-7-7-7-7-7-7-7-7|
E|5-5-5-5-5-5-5-5-5-5-5-5-5-5-5-5-5-5-5-5-5-5-5-5-5-5-5-5-5-5-5-5-5-5-5-5

e|---------------|5-5-5-5-5-5-5-5-5-5-5-5-5-5-5-5-5-5-5-5-5-5-5-5-5-5-5-5-|
B|---------------|No longer muted-----------------------------------------|
G|---------------|--------------------------------------------------------|
D|---------------|--------------------------------------------------------|
A|6-6-6-6-6-6-6-6|--------------------------------------------------------|
E|4-4-4-4-4-4-4-4|--------------------------------------------------------|

e|5-5-5-5-5-5-5-5-5-5-5-5-5-5-5-5-5-5-5-5-5-5-5-5-5-5-5-5|From this point,
B|-------------------------------------------------------|you can either rest
G|-------------------------------------------------------|or play an E chord.
D|-------------------------------------------------------|Your choice. Then 
A|-------------------------------------------------------|you play the main
E|-------------------------------------------------------|riff until the end.



Hope you enjoyed this tab. If you have Troubles;) leave a comment and I will try 
to fix it.~~~~zaklassen
Tap to rate this tab
# A B C D E F G H I J K L M N O P Q R S T U V W X Y Z