Song name
# A B C D E F G H I J K L M N O P Q R S T U V W X Y Z

Weezer - Let It All Hang Out tab

Let It All Hang Out ~ Weezer
Album: Raditude
Hey people wanting to learn this song. This is my first tab and I'm pretty sure it's 
When I play it, it sounds just like the song. Hope you like it! :)Please Rate!

Tabbed by: Music Beast

Standard Tuning (EADGBE)

         +
e|-------------------------------------------|
B|--15b--15b--13--13--15--12--13--13---------|
G|-------------------------------------------|
D|-------------------------------------------|
A|-------------------------------------------|
E|-------------------------------------------| X4

Or

e|--22b--22b--20--20--22-19--20--20----------|
B|-------------------------------------------|
G|-------------------------------------------|
D|-------------------------------------------|
A|-------------------------------------------|
E|-------------------------------------------| X4

It's the same thing just an octave higher.

Verse:
e|-------------------------------------------|
B|-------------------------------------------|
G|--5--5-------------------------------------|
D|--5--5-----3--3----5--5--------------------|
A|--3--3-----3--3----5--5--------------------|
E|-----------1--1----3--3--------------------| X4

      xxxxxx    xx    xx
e|-------------------------------------------|
B|-------------------------------------------|
G|--55555555---------------------------------|
D|--55555555--3333--5555---------------------|
A|--33333333--3333--5555---------------------|
E|------------1111--3333---------------------| X4

During this ^ after the third repeat play the intro once.

Chorus:

e|-------------------------------------------|
B|-------------------------------------------|
G|--55555555------------22222222-------------|
D|--55555555--22222222--22222222--5555xxxx---|
A|--33333333--22222222--00000000--5555xxxx---|
E|------------00000000------------3333xxxx---|

e|------------------------------------12-17-12---------|
B|---------------------------------------------15--13--|
G|--55555555------------22222222-----------------------|
D|--55555555--22222222--22222222--5555-----------------|
A|--33333333--22222222--00000000--5555-----------------|
E|------------00000000------------3333-----------------|

e|-------------------------------------------|
B|-------------------------------------------|
G|--55555555------------22222222-------------|
D|--55555555--22222222--22222222--3333~~~~---|
A|--33333333--22222222--00000000--3333~~~~---|
E|------------00000000------------1111~~~~---|

Now repeat the verses x4.

Then repeat the Chorus x4.

Then...

                       xxxxxxxxxxxxxxxx  xxxxxxxxxxxxxxxx
e|-----------------------------------------------------------|
B|-----------------------------------------------------------|
G|-----------------------------------------------------------|
D|--3~~~~5~~~~7~~~~5---3333333333333333--5555555555555555----|
A|--3~~~~5~~~~7~~~~5---3333333333333333--5555555555555555----|
E|--1~~~~3~~~~5~~~~3---1111111111111111--5555555555555555----|

e|-------------------------------------------|
B|-------------------------------------------|
G|--55555555555555555------------------------|
D|--55555555555555555------------------------|
A|--33333333333333333------------------------|
E|-------------------------------------------|

Then repeat chorus twice.

Then repeat intro twice.

Then hold out the last note.

************************************

| /   slide up
| \   slide down
| h   hammer-on
| p   pull-off
| ~   vibrato
| +   harmonic
| x   Mute note
| b   Bend
| pb  Pre-bend
| br  Bend release
| pbr Pre-bend release
| brb Bend release bend

************************************

Please rate! :)
Tap to rate this tab
 
# A B C D E F G H I J K L M N O P Q R S T U V W X Y Z