Song name
# A B C D E F G H I J K L M N O P Q R S T U V W X Y Z

Weezer - Turn Me Round tab

-------------------------------------------------------------------------------
                             Turn Me Round - Weezer
-------------------------------------------------------------------------------
Tabbed by:gbubguitar107
Email:gbellerby10@gmail.com

Tuning:EADGBe (Standard Tuning, E Natural)

Alright Guys, Third tab ever. I know the solo isn't exactly correct, 
but I was tabbing it from bad speakers of a ripped mp3 audio. 
I did alright for that, also it will probably be the first 
solo tab for this site, so yeah. Also, be aware that 
my writing of timing isn't spot on, so I'll give you an 
estimate, but you will have to listen to the song for 
a better understanding. Thanks.


  Verse x 4 
 
  F              C             G             D              
e|---------------------------------------------------------------------------|
B|---------------------------------------------------------------------------|
G|----------------5--5-5--5-5-5-----------------7--7-7--7-7-7----------------|
D|-3--3-3--3-3-3--5--5-5--5-5-5--5--5-5--5-5-5--7--7-7--7-7-7----------------|
A|-3--3-3--3-3-3--3--3-3--3-3-3--5--5-5--5-5-5--5--5-5--5-5-5----------------|
E|-1--1-1--1-1-1-----------------3--3-3--3-3-3-------------------------------|

  Chorus x 2
   
  F               C              G              D          Em  
e|---------------------------------------------------------------------------|
B|---------------------------------------------------------------------------|
G|----------------5-x-5-x-5-x-5-----------------7-7-7-7-7--9-----------------|
D|-3-x-3-x-3-x-3--5-x-5-x-5-x-5--5-x-5-x-5-x-5--7-7-7-7-7--9-----------------|
A|-3-x-3-x-3-x-3--3-x-3-x-3-x-3--5-x-5-x-5-x-5--5-5-5-5-5--7-----------------|
E|-1-x-1-x-1-x-1-----------------3-x-3-x-3-x-3-------------------------------|

  Bridge pt1. x 2 

   C        D
e|---------------------------------------------------------------------------|
B|---------------------------------------------------------------------------|
G|-5~-------7~---------------------------------------------------------------|
D|-5~-------7~---------------------------------------------------------------|
A|-3~-------5~---------------------------------------------------------------|
E|---------------------------------------------------------------------------|

 Bridge pt2. X 2       (The Palm Mute gets progressively lighter)
 
   C               D
e|---------------------------------------------------------------------------|
B|---------------------------------------------------------------------------|
G|-5---------------7---------------------------------------------------------|
D|-5--5-5-5-5-5-5--7--7-7-7-7-7-7--------------------------------------------|
A|-3--3-3-3-3-3-3--5--5-5-5-5-5-5--------------------------------------------|
E|---------------------------------------------------------------------------|
P.M.  - - - - - -     - - - - - -

Guitar Solo


e|---------------------------------------------------------------------------|
B|---------------------------------------------11-------11-11b13-8-8---------|
G|-10b12--10--8-10-8----8v--8-----8----8-10b12----10b12--------------10-10--9|
D|-------------------10-------10----10---------------------------------------|
A|---------------------------------------------------------------------------|
E|---------------------------------------------------------------------------|

e|-----------------8----------------------------11-------11-13-11-11-8--11--8|
B|-------8-11-8-11---11-11-11-11b13r-8b11-11b13----11b13---------------------|
G|-10b12---------------------------------------------------------------------|
D|---------------------------------------------------------------------------|
A|---------------------------------------------------------------------------|
E|---------------------------------------------------------------------------|

e|-13b15-13b15--13-11-13-11-------11-----------------------------------------|
B|--------------------------11b13----11b13~----------------------------------|
G|---------------------------------------------------------------------------|
D|---------------------------------------------------------------------------|
A|---------------------------------------------------------------------------|
E|---------------------------------------------------------------------------|

Yes, Yes, I know the solo is only about 75-80% correct, 
but it was hard to hear in the audio I was listening to 
when I made this. If you use this solo as a guideline to 
make your own, you'll sound fine. Thanks for reading this tab.

************************************

| /   slide up
| \   slide down
| h   hammer-on
| p   pull-off
| ~   vibrato
| +   harmonic
| x   Mute note
| b   Bend
| pb  Pre-bend
| br  Bend release
| pbr Pre-bend release
| brb Bend release bend

************************************
Tap to rate this tab
 
# A B C D E F G H I J K L M N O P Q R S T U V W X Y Z