Song name
# A B C D E F G H I J K L M N O P Q R S T U V W X Y Z

Weezer - The Girl Got Hot tab

-------------------------------------------------------------------------------
			                         The Girl Got Hot - Weezer
-------------------------------------------------------------------------------
Tabbed by: Greg
Email: gregush1234@msn.com

Tuning: Standard

Intro                               This part twice
e|----x-x----x-x----x---x---x---x-|----------------------------------|
B|----x-x----x-x----x---x---x---x-|----------------------------------|
G|--0-x-x--0-x-x--0-x-0-x-0-x-0-x-|---------7---------7--------------|
D|--0-x-x--0-x-x--0-x-0-x-0-x-0-x-|--0-7--0-7--0-7--0-7--------------|
A|--0-x-x--0-x-x--0-x-0-x-0-x-0-x-|--0-7--0-5--0-7--0-5--------------|
E|--0-x-x--0-x-x--0-x-0-x-0-x-0-x-|--0-5--0-5--0-5--0-5--------------|

Verse 1
e|--------------------------------------------------------|
B|--------------------------------------------------------|
G|---------7----------------------------7--------9--------|
D|--0-7--0-7--0-7--0-5-5-0-5-5---0-7--0-7--0-7-0-9-0-7----| X 2
A|--0-7--0-5--0-7--0-5-5-0-5-5---0-7--0-5--0-7-0-7-0-7----|
E|--0-5--0-5--0-5--0-3-3-0-3-3---0-5--0-5--0-5-0-7-0-5----|
Second time Guitar 2 comes in with this:
e|--5--|
B|--5--|
G|-----| X 32
D|-----|
A|-----|
E|-----|
 
Chorus
e|------------------------------------------------------------------|
B|------------------------------------------------------------------|
G|-7------------------------------7-7-7-7-7-7-7-7-6-6-6-6-6-6-6-6---|
D|-7-[x8]-7-7-7-7-7-7-7-7--9-[x8]-7-7-7-7-7-7-7-7-6-6-6-6-6-6-6-6---|
A|-5------7-7-7-7-7-7-7-7--9------5-5-5-5-5-5-5-5-4-4-4-4-4-4-4-4---|
E|-5------5-5-5-5-5-5-5-5--7------5-5-5-5-5-5-5-5-4-4-4-4-4-4-4-4---|
        Pause between each A chord

                         e|--------------5------------------4b--|
    Guitar 2 plays       B|-------------------------------------|
          this -->       G|----------5-8---8--5------4--7-------|
                         D|-------7-------------7-6-------------|
                         A|-------------------------------------|
                         E|-------------------------------------|

Then play the second part of the intro once.
Verse 2 is same as verse 1, except the second time, 
its all palm muting for Guitar 1:

Very fast paced
e|--------------------------------------|
B|--------------------------------------|
G|--------------------------------------|
D|--------------------------------------|
A|--77777777777777777777777777777777----|
E|--55555555555555555555555555555555----|
					
e|--------------------------------------|
B|--------------------------------------|
G|--------------------------------------|
D|--7777777777777777--------------------|
A|--55555555555555557777777777777777----|
E|------------------5555555555555555----|
	   This whole thing twice

Chorus again

And then bridge:
e|--------------------|
B|--------------------|
G|--7-----9-----7-----|
D|--7--7--9--7--7-7---| x2
A|--5--7--7--7--5-7---|
E|--5--5--7--5--5-5---|
    Na Na Na Na NaNa
e|-------------------------------------|
B|-------------------------------------|
G|-7-----9-----9-11-12----14-----------|
D|-7--7--9--9--9-11-12-12-14-----------|
A|-5--7--7--9--7-9--10-12-12-----------|
E|-5--5--7--7--7-9--10-10-12-----------|
   Na Na Na Na NaNa Na Na Na

Then theres the break where there’s no guitar.
Then theres the second part of the Chorus:
Guitar 1
e|-------------------------------------------|
B|-------------------------------------------|
G|---------7-7-7-7-7-7-7-7-6-6-6-6-6-6-6-6---|
D|--9-[x8]-7-7-7-7-7-7-7-7-6-6-6-6-6-6-6-6---|
A|--9------5-5-5-5-5-5-5-5-4-4-4-4-4-4-4-4---|
E|--7------5-5-5-5-5-5-5-5-4-4-4-4-4-4-4-4---|
Guitar 2
e|----------------5------------------4b--|
B|---------------------------------------|
G|------------5-8---8--5------4--7-------|
D|---------7-------------7-6-------------|
A|---------------------------------------|
E|---------------------------------------|

And then the Outro is similar to the intro

You can strum the A and D chords if you want
e|---------------------------|
B|---------------------------|
G|-----------7---------7-----|
D|----0-7--0-7--0-7--0-7-----| x4
A|----0-7--0-5--0-7--0-5-----|
E|----0-5--0-5--0-5--0-5-----|

e|--------------------------------|
B|--------------------------------|
G|-----------7--------------------|
D|----0-7--0-7--0-7--0-5-5-0-5-5--|
A|----0-7--0-5--0-7--0-5-5-0-5-5--|
E|----0-5--0-5--0-5--0-3-3-0-3-3--|

And thats it. Listen to the song for all the timing.
Tap to rate this tab
 
# A B C D E F G H I J K L M N O P Q R S T U V W X Y Z