Song name
# A B C D E F G H I J K L M N O P Q R S T U V W X Y Z

Weezer - Let It All Hang Out tab

Wezzer Let It all Hang Out

This is my first tab and I play left handed but I think that This
tab is the closest I could Get to the song

b-Bend
s-Slide
h-hammer on

Intro
-Use lots of gain in intro


e--10b--10b----8-8---10-7---8-8-------------|
B-------------------------------------------|
G-------------------------------------------|   3x
D-------------------------------------------|
A-------------------------------------------|
E-------------------------------------------|


verse


e-----------------------------------------------|
B-----------------------------------------------|
G-----------------------------------------------|   3x
D--10-10-------7-7-----5-5----10-10-------------|
A--10-10-------7-7-----5-5----10-10-------------|
E--8-8---------5-5-----3-3----8--8--------------|


Chorus

e--------------------------------------------|
B--------------------------------------------|
G--------------------------------------------|
D--10--------2--------7-------5------x-x-x-x-|
A--10-8x-----2-8x-----7-8x----5-8x---x-x-x-x-|
E--8---------0--------5-------3------x-x-x-x-|

Interlude


e-----------------------------------------------|
B-----------------------------------------------|
G-----------------------------------------------|   4x
D--------------------------5--------------------|
A-x-x-x-x-x-x-x-x-x-x-x-x--5--------------------|
E-x-x-x-x-x-x-x-x-x-x-x-x--3--------------------|
Tap to rate this tab
# A B C D E F G H I J K L M N O P Q R S T U V W X Y Z