Song name
# A B C D E F G H I J K L M N O P Q R S T U V W X Y Z

Weezer - If Youre Wondering If I Want You To I Want You To tab

Tab difficulty: novice

-------------------------------------------------------------------------------
			     (If You're Wondering If I Want You To)I Want You To - Weeze(r)
-------------------------------------------------------------------------------
Tabbed by: Sk

Tuning: Standaaard
INTRO 0.00-0.48 (there are a few chords that match River's voice in places, you can play 
if you want, I haven't tabbed them)
e|--------------------------------------------------------------------------|
B|--------------------------------------------------------------------------|
G|--777-(0)x------7-7-77(0)x---0--444-(0)x------4-4-44(0)x---0--------------|
D|--777-(0)x--7---7-7-77(0)x-7-0--444-(0)x--4---4-4-44(0)x-4-0--------------|
A|--555-(0)x--7---5-5-55(0)x-7-0--222-(0)x--4---2-2-22(0)x-4-0--------------|
E|------------5--------------5--------------2--------------2----------------|

CHORUS 0.48-1.07 (that is the vague rhythm, also some small chords may be missing...)
e|--------------------------------------------------------------------------|
B|--------------------------------------------------------------------------|
G|--7-7-7x7-7-77----------------------------------------------Back to the --|
D|--7-7-7x7-7-77--9-9-9x9-9-99-7-5-5-5x5-5-55-6-7-7-5x7-7-77--start of the -|
A|--5-5-5x5-5-55--9-9-9x9-9-99-7-5-5-5x5-5-55-6-7-7-7x7-7-77--chorus--------|
E|----------------7-7-7x7-7-77-5-3-3-3x3-3-33-4-5-5-5x5-5-55----------------|

BACK TO RIFF1 1.07-1.41
e|--------------------------------------------------------------------------|
B|--------------------------------------------------------------------------|
G|--777-(0)x------7-7-77(0)x---0--444-(0)x------4-4-44(0)x---0--------------|
D|--777-(0)x--7---7-7-77(0)x-7-0--444-(0)x--4---4-4-44(0)x-4-0--------------|
A|--555-(0)x--7---5-5-55(0)x-7-0--222-(0)x--4---2-2-22(0)x-4-0--------------|
E|------------5--------------5--------------2--------------2----------------|

CHORUS 1.49-2.24
e|--------------------------------------------------------------------------|
B|--------------------------------------------------------------------------|
G|--7-7-7x7-7-77----------------------------------------------Back to the --|
D|--7-7-7x7-7-77--9-9-9x9-9-99-7-5-5-5x5-5-55-6-7-7-5x7-7-77--start of the -|
A|--5-5-5x5-5-55--9-9-9x9-9-99-7-5-5-5x5-5-55-6-7-7-7x7-7-77--chorus--------|
E|----------------7-7-7x7-7-77-5-3-3-3x3-3-33-4-5-5-5x5-5-55----------------|

2.24-2.51
e|---------------------------------------------------------------------------|
B|---------------------------------------------------------------------------|
G|---------------------------------------------------------------------------|
D|--5-5-5x5-5-55-6-7-7-5x7-7-77-8-9-9-9x9-9-99-------------------------------|
A|--5-5-5x5-5-55-6-7-7-7x7-7-77-8-9-9-9x9-9-99-------------------------------|
E|--3-3-3x3-3-33-4-5-5-5x5-5-55-6-7-7-7x7-7-77-------------------------------|

CHORUS until 3.28
e|--------------------------------------------------------------------------|
B|--------------------------------------------------------------------------|
G|--7-7-7x7-7-77----------------------------------------------Back to the --|
D|--7-7-7x7-7-77--9-9-9x9-9-99-7-5-5-5x5-5-55-6-7-7-5x7-7-77--start of the -|
A|--5-5-5x5-5-55--9-9-9x9-9-99-7-5-5-5x5-5-55-6-7-7-7x7-7-77--chorus--------|
E|----------------7-7-7x7-7-77-5-3-3-3x3-3-33-4-5-5-5x5-5-55----------------|


Hope this tickles your fancy!

************************************

| /   slide up
| \   slide down
| h   hammer-on
| p   pull-off
| ~   vibrato
| +   harmonic
| x   Mute note
| b   Bend
| pb  Pre-bend
| br  Bend release
| pbr Pre-bend release
| brb Bend release bend

************************************
Tap to rate this tab
 
# A B C D E F G H I J K L M N O P Q R S T U V W X Y Z