Guitaretab - guitar tabs
Song name
# A B C D E F G H I J K L M N O P Q R S T U V W X Y Z

Weezer - Hash Pipe tab

Weezer - Hash Pipe
===============================
Tabbed by : maxwseven@yahoo.com
Title     : Hash Pipe
Band      : Weezer
Tuning    : Drop D |DADGBe|
===============================
(full distortion all the way)
------------------------------- 

--------------------------------------------------------------------------
PART 1
======               Pre-Chorus
                     ==========
e|--------|         |----------|  |--------|      |----------|
B|--------|         |----------|  |--------|      |----------|
G|--------| (X24)   |-7-7-77-7-|  |--------|      |-7-7-77-7-|
D|--------|         |-7-7-77-7-|  |7-7-9/10|(X4)  |-7-7-77-7-|
A|7-7-9-10|         |-5-5-55-5-|  |7-7-9/10|      |-5-5-55-5-|
D|7-7-9-10|         |----------|  |7-7-9/10|      |----------|
  x x x x            Ho_oo__.cakm                  Ho_oo__.cakm

I canít help...                
These players come...
I canít love my ...
Down on santa monica ...

--------------------------------------------------------------------------
PART 2
======

Chorus:
=======
e|----------------| |---------------| |---------------|
B|----------------| |---------------| |---------------|
G|101010-10-101010| |9-9-9--9--9-9-9| |7-7-7--7--7-7-7|
D|101010-10-101010| |9-9-9--9--9-9-9| |7-7-7--7--7-7-7|
A|8-8-8--8--8-8-8-| |7-7-7--7--7-7-7| |5-5-5--5--5-5-5|
D|----------------| |---------------| |---------------|
      Wouo ouooo...      Wouo ouooo...     Wouo ouooo...

e|----------------| |---------------|
B|----------------| |---------------|
G|----------------| |---------------|
D|101010-10-101010| |9-9-99-9-99-9-9|
A|101010-10-101010| |9-9-99-9-99-9-9|
D|101010-10-101010| |9-9-99-9-99-9-9|
      Wouo... ouooo...         I got my...


--------------------------------------------------------------------------
REPEAT PART 1
--------------------------------------------------------------------------
REPEAT PART 2
--------------------------------------------------------------------------

Pre Solo:
=========
	
e|--------|       
B|--------|        
G|--------| (X24)  (Lead starts the solo on the 9th time)
D|--------|        
A|7-7-9-10|        
D|7-7-9-10|        
  x x x x  

--------------------------------------------------------------------------
[ Tab from: http://www.guitaretab.com/w/weezer/22978.html ]
Solo : (some wah effect)
     t         t         t
e|8888|7777|5555|3333|  |----|----|----|----| 
B|8888|7777|5555|3333|  |5555|3333|1111|0000| 
G|----|----|----|----|  |----|----|----|----| 
D|----|----|----|----|  |----|----|----|----| 
A|----|----|----|----|  |----|----|----|----| 
D|----|----|----|----|  |----|----|----|----| 

e|-----|----|----|----| |-----|----|-----|----|
B|-----|----|----|----| |-----|----|-----|----|
G|-----|----|----|----| |-----|----|-----|----|
D|/5555|4444|2222|0000| |/9999|7777|/9999|7777|
A|-----|----|----|----| |-----|----|-----|----|
D|-----|----|----|----| |-----|----|-----|----|

--------------------------------------------------------------------------


e|----------|  |--------|     |----------|
B|----------|  |--------|     |----------|
G|-7-7-77-7-|  |--------|     |-7-7-77-7-|
D|-7-7-77-7-|  |7-7-9/10|(X4) |-7-7-77-7-|
A|-5-5-55-5-|  |7-7-9/10|     |-5-5-55-5-|
D|----------|  |7-7-9/10|     |----------|
  Ho_oo__.cakm                 Ho_oo__.cakm

--------------------------------------------------------------------------

Chorus:
=======
e|----------------| |---------------| |---------------|
B|----------------| |---------------| |---------------|
G|101010-10-101010| |9-9-9--9--9-9-9| |7-7-7--7--7-7-7|
D|101010-10-101010| |9-9-9--9--9-9-9| |7-7-7--7--7-7-7|
A|8-8-8--8--8-8-8-| |7-7-7--7--7-7-7| |5-5-5--5--5-5-5|
D|----------------| |---------------| |---------------|
      Wouo ouooo...      Wouo ouooo...     Wouo ouooo...

e|----------------| |---------------|
B|----------------| |---------------|
G|----------------| |---------------|
D|101010-10-101010| |9-9-99-9-99-9-9|
A|101010-10-101010| |9-9-99-9-99-9-9|
D|101010-10-101010| |9-9-99-9-99-9-9|
      Wouo... ouooo...         I got my...

--------------------------------------------------------------------------

e|--------|       |--------|--------|  |--------|       |---|
B|--------|       |--------|--------|  |--------|       |---|
G|--------| (X8)  |--------|--------|  |--------| (X6)  |---|
D|--------|       |--------|--7-9/10|  |7-7-9/10|       |-7-|
A|7-7-9-10|       |7-7-9-10|7-7-9/10|  |7-7-9/10|       |-7-|
D|7-7-9-10|       |7-7-9-10|7-7-9/10|  |7-7-9/10|       |-7-|     
  x x x x          x x x x  x c c c     c c c c

--------------------------------------------------------------------------

 /  slide up
 \  slide down
 h  hammer-on
 p  pull-off
 v  vibrato
 +  harmonic
 x  mute note
 t  triplet
 c  crescendo
Related for Hash Pipe tab