Song name
# A B C D E F G H I J K L M N O P Q R S T U V W X Y Z

Weezer - Dope Nose tab

Standard Tunning:(Guitars)[EADGBe]
Standard Tunning:(Bass)[EADG]
Guitar 1 plays with distortion pedal

Guitar 1:intro/Oh, oh oh oh.....
e|-----------------|
B|-----------------|
G|-3-3-0-0-3-3-3-3-|
D|-3-3-0-0-3-3-3-3-|
A|-1-1-1-1-1-1-1-1-|
E|-----------------|

Guitar 2:Oh, oh oh oh.....
e|-0-0-0-0-0-0-0-0-|
B|-0-0-0-0-0-0-0-0-|
G|-7-7-7-7-7-7-7-7-|
D|-8-8-8-8-8-8-8-8-|
A|-8-8-8-8-8-8-8-8-|
E|-6-6-6-6-6-6-6-6-|

Bass:Oh, oh oh oh.....
G|-----------------|
D|-----------------|
A|-----------------|
E|-6-6-6-4-6-6-6-6-|

Guitar 1:Verse
e|-----------------------------------|
B|-----------------------------------|
G|-------3-3-3-----------------0-0-3-|
D|-------3-3-3-----3-------3-3-0-0-3-|
A|-1-1-1-1-1-1-1-1-3-------3-1-1-1-1-|
E|-----------------1-1-1-1-1---------|

Guitar 2:Verse
e|-0-0-0-0-0-0-0-0-0-0-0-0-0-0-0-0-0-|
B|-0-0-0-0-0-0-0-0-0-0-0-0-0-0-0-0-0-|
G|-7-7-7-7-7-7-7-7-2-2-2-2-2-7-7-7-7-|
D|-8-8-8-8-8-8-8-8-3-3-3-3-3-8-8-8-8-|
A|-8-8-8-8-8-8-8-8-3-3-3-3-3-8-8-8-8-|
E|-6-6-6-6-6-6-6-6-1-1-1-1-1-6-6-6-6-|

Bass:Verse
G|-----------------------------------|
D|-----------------------------------|
A|-----------------------------------|
E|-6-6-6-4-6-6-6-6-1-1-1-0-1-6-6-6-6-|

Guitar 1:Chorus         Chorus:part 2
e|-------------------|  e|-----------------|
B|-------------------|  B|-----------------|
G|-3-3-5-5-5-5-5-5-5-|  G|-6-6-6-6-6-6-6-6-|
D|-3-3-5-5-5-5-5-5-5-|  D|-6-6-6-6-6-6-6-6-|
A|-1-1-3-3-3-3-3-3-3-|  A|-4-4-4-4-4-4-4-4-|
E|-------------------|  E|-----------------|

Guitar 2: fills(play with chorus pedal)
e|-6p-5p-3h----------|  e|-----------------|  e|-16p-15p-13h-16p-15p-13h-16p-15p-13h-|
B|----------6p-3p-1h-|  B|-1h-3p-3p-1h-----|  B|-------------------------------------|
G|-------------------|  G|--------------3p-|  G|-------------------------------------|
D|-------------------|  D|-----------------|  D|-------------------------------------|
A|-------------------|  A|-----------------|  A|-------------------------------------|
E|-------------------|  E|-----------------|  E|-------------------------------------|

Bass:Chorus             Chorus:part 2
G|-------------------|  G|-----------------|
D|-------------------|  D|-----------------|
A|-1-1-3-3-3-3-3-3-3-|  A|-4-4-4-4-4-4-4-4-|
E|-------------------|  E|-----------------|

Guitar 1: solo
e|--------------------------------------------------------------------------------------
B|--------------------------------------------------------------------------------------
G|-15-15-15-15-13-13-13-11-11h-13p-11---------------------------------------------15-15-
D|------------------------------------15-15-15-13-13-11h-13p-11h-13p-11h----13-15-15-15-
A|-----------------------------------------------------------------------15-------------
E|--------------------------------------------------------------------------------------

e|-------------------------------15-15-13-13-16-16-16p-15p-13h-16p-15p-13h-16p-15p-13h-
B|-------------15-15-13-13-12-12-15-15-13-13-16-16-------------------------------------
G|-13-13-12-12-15-15-13-13-12-12-------------------------------------------------------
D|-13-13-12-12-------------------------------------------------------------------------
A|-------------------------------------------------------------------------------------
E|-------------------------------------------------------------------------------------

e|-18----------|
B|----15-15-15-|
G|----15-15-15-|
D|-------------|
A|-------------|
E|-------------|

Guitar 1:Finale
e|---------------|
B|---------------|
G|-3-3-3-3-3-3-3-|
D|-1-1-1-1-1-1-3-|
A|-1-1-1-1-1-1-1-|
E|---------------|

Guitar 2:Finale
e|-0-0-0-0-0-0-0-|
B|-0-0-0-0-0-0-0-|
G|-6-6-6-6-6-6-7-|
D|-7-7-7-7-7-7-8-|
A|-7-7-7-7-7-7-8-|
E|-5-5-5-5-5-5-6-|

Bass:Finale
G|---------------|
D|---------------|
A|-0-0-0-0-0-0-1-|
E|---------------|

Play
Intro
oh oh oh..x2
verse x2
Chorus x4
oh oh oh..x2
verse x2
Chorus x4
chorus part 2
oh oh oh.. x2
chorus x4
chorus part 2
oh oh oh. x2
finale
Tap to rate this tab
# A B C D E F G H I J K L M N O P Q R S T U V W X Y Z