Song name
# A B C D E F G H I J K L M N O P Q R S T U V W X Y Z

Weezer - Fall Together tab

Ok this is my first tab but i will be osting more and this tab is 100% right becaues i 
the oficial sheet music and i have tabbed this song for u guys i loive weezer and this is 
great song.

Tuning:standard
played with distortion through whole song

Key:

x  = mute note
x = slide from random spot on the fretboard
  = slide
h  = hammer on
p  = pull off
b  = bend

Intro:

E-x--
B-x--
G-x--
D-x--
A-x--
e-x--

E---------------------------|
B---------------------------|
G---------------------------|
D-------------4---4---------|
A------4--4-4-0h2-0-------3-|
e------2--2-2-------0-0-1-1-|

Then Play This Part 3x:

E---------------------------|
B---------------------------|
G---------------------------|
D-------------4---4---------|
A------4--4-4-0h2-0-------3-|
e------2--2-2-------0-0-1-1-|


Verse:

E-------------------------------------------|
B-------------------------------------------|
G-------------------------------------------|
D-------------------------------------------|
A-xx-4--xx-4--xx-7-xx-7-xx-2-xx-2-xx-4-xx-4-|
e----2-----2-----5----5----0----0----2----2-|

Then This Part Again 2x:

E---------------------------|
B---------------------------|
G---------------------------|
D-------------4---4---------|
A------4--4-4-0h2-0-------3-|
e------2--2-2-------0-0-1-1-|

Verse:

E-------------------------------------------|
B-------------------------------------------|
G-------------------------------------------|
D-------------------------------------------|
A-xx-4--xx-4--xx-7-xx-7-xx-2-xx-2-xx-4-xx-4-|
e----2-----2-----5----5----0----0----2----2-|

Chorus:

(i couldnt tab the timing very well so listen to the song)

E----------------------------------------------------------------x-|
B----------------------------------------------------------------x-|
G----------------------------------------------------------------x-|
D-7-7-777--7-7-777--------------------6-6-666--6-6-666-----------x-|
A-5-5-555--5-5-555--7-7-777--7-7-777--4-4-444--4-4-444--4-4--2-4-x-|
e-------------------5-5-555--5-5-555--------------------0-0--0-0-x-|

Then this part again2x:

E---------------------------|
B---------------------------|
G---------------------------|
D-------------4---4---------|
A------4--4-4-0h2-0-------3-|
e------2--2-2-------0-0-1-1-|

Verse:

E-------------------------------------------|
B-------------------------------------------|
G-------------------------------------------|
D-------------------------------------------|
A-xx-4--xx-4--xx-7-xx-7-xx-2-xx-2-xx-4-xx-4-|
e----2-----2-----5----5----0----0----2----2-|

Then:                         Guitar2:

E--------------------------  E------------------------|
B--------------------------  B------------------------|
G--------------------------  G------------4---4-2h4-2-|
D-------------4---4--------  D------------------------|
A------4--4-4-0h2-0-------3  A------------------------|
e------2--2-2-------0-0-1-1  e------------------------|

Verse:

E-------------------------------------------|
B-------------------------------------------|
G-------------------------------------------|
D-------------------------------------------|
A-xx-4--xx-4--xx-7-xx-7-xx-2-xx-2-xx-4-xx-4-|
e----2-----2-----5----5----0----0----2----2-|

Chorus:

Verse:

E-------------------------------------------|
B-------------------------------------------|
G-------------------------------------------|
D-------------------------------------------|
A-xx-4--xx-4--xx-7-xx-7-xx-2-xx-2-xx-4-xx-4-|
e----2-----2-----5----5----0----0----2----2-|

Then:                         Guitar2:

E--------------------------  E------------------------|
B--------------------------  B------------------------|
G--------------------------  G------------4---4-2h4-2-|
D-------------4---4--------  D------------------------|
A------4--4-4-0h2-0-------3  A------------------------|
e------2--2-2-------0-0-1-1  e------------------------|

Bridge:

E---------------------------------------------------------|
B---------------------------------------------------------|
G---------------------------------------------------------|
D---------------------------------------------------------|
A----4-4-4-4-4-4-4-4-4-7-7-7-7--4-4-4-4-4-4-4-4-4-7-7-7-7-|
e----0-2-2-0-2-0-2-2-0-5-5-0-5--0-2-2-0-2-0-2-2-0-5-5-0-5-|

Gtr2 plays Solo:(listen to song for exact timing)

E-214--------------------------------------------------------------|
B-------17-14-17-14----14------------------------------------------|
G-------------------16----16-14-16-14----14------16-14----14-------|
D-------------------------------------16---16-14-------16----16-14-|
A------------------------------------------------------------------|
e------------------------------------------------------------------|

E---------14--------16b-14-16--14----14-16----14-----14-----14-----|
B------14----17b-14---------------17-------17----17b----17b----17--|b
G--16b-------------------------------------------------------------|
D------------------------------------------------------------------|
A------------------------------------------------------------------|
e------------------------------------------------------------------|

E-14-17-14-14-----14-----14-----14-----12-----12----12-12-----16----16-----|
B-------------17b----17b----17b---15b----15b----15b------19b----19b----19--|b
G--------------------------------------------------------------------------|
D--------------------------------------------------------------------------|
A--------------------------------------------------------------------------|
e--------------------------------------------------------------------------|

E-16-16-16--|b
B-----------|
G-----------|
D-----------|
A-----------|
e-----------|

During Solo Gtr1 plays:

E--------------------------------------------|
B--------------------------------------------|
G--------------------------------------------|
D--------------------------------------------|
A-xx-4--xx-4--xx-7-xx-7-xx-2-xx-2-xx-4-xx-4--|
e----2-----2-----5----5----0----0----2----2--|

E------------------------------------------------------|
B------------------------------------------------------|
G------------------------------------------------------|
D-------------4---4----------------------4---4---------|
A------4--4-4-0h2-0-------3-------4--4-4-0h2-0-------3-|
e------2--2-2-------0-0-1-1-------2--2-2-------0-0-1-1-|

E--------------------------------------------|
B--------------------------------------------|
G--------------------------------------------|
D--------------------------------------------|
A-xx-4--xx-4--xx-7-xx-7-xx-2-xx-2-xx-4-xx-4--|
e----2-----2-----5----5----0----0----2----2--|


Ending:

E------------------------------------------------------|
B------------------------------------------------------|
G------------------------------------------------------|
D-------------4---4------------------------------------|
A------4--4-4-0h2-0-------3----4-----3--4-----3--4-2-2-|
e------2--2-2-------0-0-1-1----2-0-0-1--2-0-0-1--2-0-0-|
Tap to rate this tab
 
# A B C D E F G H I J K L M N O P Q R S T U V W X Y Z