Weezer - Memories tab

Check Out My Band From Windsor Ontario
www.myspace.com/ShortcutToLast
Search for us on Facebook "Shortcut To Last"
Twitter.com/ShortcutToLast

Band : Weezer

Song : Memories

Tuning : Standard

YOUTUBE LINK TO SONG

http://www.youtube.com/watch?v=YGg_mVBqXVo


Intro

   B        E
e---------------------|
b---------------------|
g------------99999999-|      x 2
d--99999999--99999999-|
a--99999999--77777777-|
e--777777777----------|


Verse

   B        E
e---------------------|
b---------------------|
g------------99999999-|      x 8
d--99999999--99999999-|
a--99999999--77777777-|
e--777777777----------|


Chorus

  E                B
e------------------------------------|
b------------------------------------|
g-9999999999999999-------------------|
d-9999999999999999-9999999999999999--|      x3
a-7777777777777777-9999999999999999--|
e------------------7777777777777777--|


   A               B
e------------------------------------|
b------------------------------------|
g------------------------------------|
d-7777777777777777-9999999999999999--|      x1
a-7777777777777777-9999999999999999--|
e-5555555555555555-7777777777777777--|


Verse

   B        E
e---------------------|
b---------------------|
g------------99999999-|      x 8
d--99999999--99999999-|
a--99999999--77777777-|
e--777777777----------|


Chorus

  E                B
e------------------------------------|
b------------------------------------|
g-9999999999999999-------------------|
d-9999999999999999-9999999999999999--|      x3
a-7777777777777777-9999999999999999--|
e------------------7777777777777777--|


   A               B
e------------------------------------|
b------------------------------------|
g------------------------------------|
d-7777777777777777-9999999999999999--|      x1
a-7777777777777777-9999999999999999--|
e-5555555555555555-7777777777777777--|

Bridge


  C#       D#       B        F#
e-----------------------------------------|
b-----------------------------------------|
g-66666666-88888888-44444444--------------|
d-66666666-88888888-44444444-44444444-----|   x4
a-44444444-66666666-22222222-44444444-----|
e----------------------------22222222-----|


Slow Pretty Part

  E   B
e----------|
b----------|
g--9-------|
d--9---7---|    x2
a--7---7---|
e------9---|


Chorus

  E                B
e------------------------------------|
b------------------------------------|
g-9999999999999999-------------------|
d-9999999999999999-9999999999999999--|      x3
a-7777777777777777-9999999999999999--|
e------------------7777777777777777--|


   A               B
e------------------------------------|
b------------------------------------|
g------------------------------------|
d-7777777777777777-9999999999999999--|      x1
a-7777777777777777-9999999999999999--|
e-5555555555555555-7777777777777777--|


Ending Note

   E
e-----
b-----
g--9--
d--9--
a--7--
e-----
Tap to rate this tab
 
# A B C D E F G H I J K L M N O P Q R S T U V W X Y Z