Song name
# A B C D E F G H I J K L M N O P Q R S T U V W X Y Z

Weezer - Memories tab

Artist: Weezer
Album: Hurley
Song: Memories

Tabbed by: Beckett W

Tuning: Standard

Intro + Verse:
                 E                                    A
e|---------------------------------------|
B|---------------------------------------|
G|--9-9-9-9-9-9-9-9-9-9------------------|
D|--9-9-9-9-9-9-9-9-9-9-7-7-7-7-7-7-7-7--|
A|--7-7-7-7-7-7-7-7-7-7-7-7-7-7-7-7-7-7--|
E|----------------------5-5-5-5-5-5-5-5--|

Chorus:

Memories, make me want to go back there, back there
e|--------------------------|
B|--------------------------|
G|-9-8--9-8-6-4-6--4--6--4--|
D|--------------------------|
A|--------------------------|
E|--------------------------|

                E                                     B
e|---------------------------------------|
B|---------------------------------------|
G|--9-9-9-9-9-9-9-9-9-9------------------|
D|--9-9-9-9-9-9-9-9-9-9-9-9-9-9-9-9-9-9--|
A|--7-7-7-7-7-7-7-7-7-7-9-9-9-9-9-9-9-9--|
E|----------------------7-7-7-7-7-7-7-7--|
Tap to rate this tab
 
# A B C D E F G H I J K L M N O P Q R S T U V W X Y Z