Weezer - Unspoken tab

-------------------------------------------------------------------------------
			     UNSPOKEN - Weezer
-------------------------------------------------------------------------------
Tabbed by: Matti Cowan
Email: I'll never tell.

Tuning: E-A-D-G-B-e
(Probably tuned down half a step)

e|----5---5--------------------------------------------------------------------|
B|----5---7--------------------------------------------------------------------|
G|----6---7--------------------------------------------------------------------|
D|----7---7--------------------------------------------------------------------|
A|----7---5--------------------------------------------------------------------|
E|----5---5--------------------------------------------------------------------|
Every morning...  (these two chords repeat until the prechorus. Note: singing 
begins on the second chord with "Every...")

e|-----------------------------------------------------|
B|-----------------------------------------------------|
G|-----------------------------------------------------|
D|--7-----------------11---------4------------------2--|
A|--7-----------------11---------4------------------2--|
E|--5-----------------9----------2------------------0--| 
Prechorus Every....I am taking....on the sun....in the sky...

e|-------------2------------5--------------------------------------------------|
B|-------------2------------5--------------------------------------------------|
G|-------------2------------6--------------------------------------------------|
D|-------------4------------7--------------------------------------------------|
A|-------------4------------7--------------------------------------------------|
E|-------------2------------5--------------------------------------------------|   
Chorus... And if you take this away from me...

************************************

| /   slide up
| \   slide down
| h   hammer-on
| p   pull-off
| ~   vibrato
| +   harmonic
| x   Mute note
| b   Bend
| pb  Pre-bend
| br  Bend release
| pbr Pre-bend release
| brb Bend release bend

************************************
Tap to rate this tab
 
# A B C D E F G H I J K L M N O P Q R S T U V W X Y Z