Weezer - Devotion tab

Artist: Weezer
Song: Devotion
Album: Pinkerton B-Side

Tabbed by Douglas Kuhn

This is the tab for "Devotion" by Weezer.  This is 100 percent accurate, as I have 
the way Rivers does his chords while playing electric.  This is also the easiest way to play 
song.

TUNED 1/2 DOWN (Eb Tuning)

INTRO

   E                 F#m
|--------------------------------------------|
|--------------------------------------------|
|--9--9--9--9--9--9---11--11--11--11--11--11-|
|--9--9--9--9--9--9---11--11--11--11--11--11-|
|--7--7--7--7--7--7---9---9---9---9---9---9--|
|--7--7--7--7--7--7---9---9---9---9---9---9--|

   B                 E
|-------------------------------------|
|-------------------------------------|
|--8--8--8--8--8--8--9--9--9--9--9--9-|
|--9--9--9--9--9--9--9--9--9--9--9--9-|
|--9--9--9--9--9--9--7--7--7--7--7--7-|
|--7--7--7--7--7--7--7--7--7--7--7--7-|

That is the chord progression for the verse; E, F#m, B.  Repeat that until you get to 
part where he sings:

"Sad to say, I pushed you away..."  From then on out I will label as the "chorus".

CHORUS:
   C#m               A
|--4--4--4--4--4--4-------------------|
|--5--5--5--5--5--5-------------------|
|--6--6--6--6--6--6--6--6--6--6--6--6-|
|--6--6--6--6--6--6--7--7--7--7--7--7-|
|--4--4--4--4--4--4--7--7--7--7--7--7-|
|--------------------5--5--5--5--5--5-|

   B                 E
|-------------------------------------|
|-------------------------------------|
|--8--8--8--8--8--8--9--9--9--9--9--9-|
|--9--9--9--9--9--9--9--9--9--9--9--9-|
|--9--9--9--9--9--9--7--7--7--7--7--7-|
|--7--7--7--7--7--7--7--7--7--7--7--7-|


   A        B
|-------------------|
|-------------------|
|--6--6--6--8--8--8-|
|--7--7--7--9--9--9-|
|--7--7--7--9--9--9-|
|--5--5--5--7--7--7-|

   E                 F#m
|--------------------------------------------|
|--------------------------------------------|
|--9--9--9--9--9--9---11--11--11--11--11--11-|
|--9--9--9--9--9--9---11--11--11--11--11--11-|
|--7--7--7--7--7--7---9---9---9---9---9---9--|
|--7--7--7--7--7--7---9---9---9---9---9---9--|

   B                 E
|---------------------------------------|
|---------------------------------------|
|--8--8--8--8--8--8--9--9--9--9--9--9---|
|--9--9--9--9--9--9--9--9--9--9--9--9---|
|--9--9--9--9--9--9--7--7--7--7--7--7---|
|--7--7--7--7--7--7--7--7--7--7--7--7---|  x2


That is the tab, it repeats basicly for the entire song, just listen and follow along.

The chords for the solo part are:

Em Am B  E
Tap to rate this tab
 
# A B C D E F G H I J K L M N O P Q R S T U V W X Y Z