Song name
# A B C D E F G H I J K L M N O P Q R S T U V W X Y Z

Weezer - Smart Girls tab

Artist.....Weezer
Song.......Smart Girls
Album......Hurley
Tabbed by..Yours truly

This is yet another great song by Weezer, love those guys =W=

Verse: (Palm-muted)
e\------------------------------------------------------------/
B\------------------------------------------------------------/
G\----7---------------------------7------------2--------------/
D\----7--(x8)--------5------------7--(x8)------2--(x8)--------/
A\----5--------------5--(x8)------5------------0--------------/
E\-------------------3----------------------------------------/

Pre-chorus: (Palm-muted)
e\------------------------------------------------------------/
B\------------------------------------------------------------/
G\-------------------4----------------------------------------/
D\----5--------------4--(x8)------5---------------------------/
A\----5--(x8)--------2------------5--(x8)---------------------/
E\----3---------------------------3---------------------------/

Chorus1: 
e\----------------------------/
B\----------------------------/
G\----7-----------------------/
D\----7--(x8)--------5--------/ (x3)
A\----5--------------5--(x8)--/
E\-------------------3--------/

e\--------------/
B\--------------/
G\----4---------/
D\----4--(x8)---/
A\----2---------/
E\--------------/

Chorus2: 
e\----------------------------/
B\----------------------------/
G\----7-----------------------/
D\----7--(x8)--------5--------/ (x3)
A\----5--------------5--(x8)--/
E\-------------------3--------/

e\--------------/
B\--------------/
G\----7---------/
D\----7--(x8)---/
A\----5---------/
E\--------------/


Pre-solo:
e\------------------------------------------------------------/
B\------------------------------------------------------------/
G\--------------------------7-------4-------7-------4---------/
D\---5----------7-----------7-(x8)--4-(x8)--7-(x8)--4-(x8)----/
A\---5-(x16)----7-(x16)-----5-------2-------5-------2---------/
E\---3----------5---------------------------------------------/

e\-------------------------/|\----------------------------------/
B\-------------------------/|\----------------------------------/
G\-------------------------/|\------2---------------------------/
D\---5-----------7---------/|\------2-(x6)----------------------/ (x4)
A\---5--(x16)----7-(x16)---/|\------0---------------------------/
E\---3-----------5---------/|\----------------------------------/

I have not finished tabbing out the solo yet but I'm working on it.
Here is the second guitar during the solo:

Solo (guitar 2):
e\------------------------------------------------------------/
B\------------------------------------------------------------/
G\----7---------------------------4------------2--------------/
D\----7--(x8)--------5------------4--(x8)------2--(x8)--------/ (x2)
A\----5--------------5--(x8)------2------------0--------------/
E\-------------------3----------------------------------------/

Song Progression:
Verse.......(x1)
Pre-chorus..(x1)
Chorus1.....(x1)
Verse.......(x1)
Pre-chorus..(x1)
Chorus2.....(x1)
Pre-solo....(x1)
Solo........(x1)
Verse.......(x1)
Pre-solo....(x1)
Chorus2.....(x1)
Chorus1.....(x1)

And there you have it! Another incredible song from the masterminds we call Weezer.
Tap to rate this tab
 
# A B C D E F G H I J K L M N O P Q R S T U V W X Y Z