Song name
# A B C D E F G H I J K L M N O P Q R S T U V W X Y Z

Weezer - Turning Up The Radio tab

-------------------------------------------------------------------------------
SONG NAME Turning Up the Radio- Band Name Weezer
-------------------------------------------------------------------------------
Tabbed by: UnfaithfulCheat
Email:chefanthone@gmail.com

Tuning:1/2 step down

INTRO
e|----7----------7-11-7-X2-------7--------7-------7---7-------------------|
B|7-9---9-X2---9---------------9---9-X2-----9-7-9---9--9------------------|
G|---------------------------9--------------------------------------------|
D|------------------------------------------------------------------------|
A|------------------------------------------------------------------------|
E|------------------------------------------------------------------------|

RYTHYM
e|---------------------------------------------------------------------------|
B|---------------------------------------------------------------------------|
G|---ALL MUTED---------------------------------------------------------------|
D|4-X8---6-X8---2-X8---------------------------------------------------------|
A|4------6------2------------------------------------------------------------|
E|2------4------0----0/////12\\\\\\TO-5TH-FRETT-AND-BEGIN-STRUMMING-CHORUS---|

CHORUS
e|------------------------------------------------------------------------|
B|------------------------------------------------------------------------|
G|------------------------------------------------------------------------|
D|7-X4---6-X4---4-X8---9-X4---7-X4---2-X8---------------------------------|
A|7------6------4------9------7------2------------------------------------|
E|5------4------2------7------5------0------------------------------------|

BRIDGE AROUND 2:20
e|------------------------------------------------------------------------|
B|------------------------------------------------------------------------|
G|------------------------------------------------------------------------|
D|2-X8---7-X8---9-X8---2-X8---6-X8---7-X8---9-X8---2-X8---6-X8---7-X8-9x16|
A|2------7------9------2------6------7------9------2------6------5----9---|
E|0------5------7------0------4------5------7------0------4------5----7---|

RIFF/SOLO
e|------------------------------------------------------------------------|
B|----5-7-9HOLD-------5-2-0-h2p>>0-------5-7-9-10-9-7-9-7-5-7HOLD---------|
G|4-6-------------4-6----------------4-6----------------------------------|
D|------------------------------------------------------------------------|
A|------------------------------------------------------------------------|
E|------------------------------------------------------------------------|

THIS KIND OF BUILDS UP BUT ITS WITHIN THOSE NOTES AND WORKS FROM ABOVE SCALE
e|------------------------------------------------------------------------|
B|---------------19-17-------19-17-------19-17-------21HOLD---------------|
G|------18-16-18-------18-16-------18-16-------18-16----------------------|
D|16-18-------------------------------------------------------------------|
A|------------------------------------------------------------------------|
E|------------------------------------------------------------------------|

Thats pretty much it. The song fades out with power chords obviously that are established above.
 Theres not many gaps here that cant be figured out by playing and listening.
The first note is probably the 3rd string on the 9th fret but I think it sounds better 
up a little more as shown above.
The slide noted in the RHYTHM section is best heard at about 44/45 seconds to really 
up on its accuracy.
 This TAB is 95% complete though. Email me if your head is caved in and you need help(wuss).

Your pal,
The Incredible Anthone

| /   slide up
| \   slide down
| h   hammer-on
| p   pull-off
| ~   vibrato
| +   harmonic
| x   Mute note
| b   Bend
| pb  Pre-bend
| br  Bend release
| pbr Pre-bend release
| brb Bend release bend
Tap to rate this tab
 
# A B C D E F G H I J K L M N O P Q R S T U V W X Y Z