Weezer - Ruling Me tab

Weezer - Ruling Me
Tab By: alvinhorafael@hotmail.com

Guitar 1
e|--------------------------------------------|
B|--------------------------------------------|
G|-4-6-4-6-4-4-3-3-3-4-6-6-4-6-4-44444444-----|2X
D|--------------------------------------------|
A|--------------------------------------------|
E|--------------------------------------------|

Guitar 2:
      B       F#      C#      B
e|-2-2-2-2-2-2-2-2-4-4-4-4-2-2-2-2----|
B|-2-2-2-2-2-2-2-2-4-4-4-4-2-2-2-2----|
G|-4-4-4-4-3-3-3-3-6-6-6-6-4-4-4-4----|2X
D|-4-4-4-4-4-4-4-4-6-6-6-6-4-4-4-4----|
A|-2-2-2-2-4-4-4-4-4-4-4-4-2-2-2-2----|
E|-2-2-2-2-2-2-2-2-4-4-4-4-2-2-2-2----|

Or:

Guitar 1

e|-------------------------------------------|
B|-1-3-1-3-1-1-0-0-0-1-3-3-1-3-1-11111111----|
G|-------------------------------------------|
D|-------------------------------------------|
A|-------------------------------------------|
E|-------------------------------------------|

Guitar 2:
      C     G         D       C
e|-3-3-3-3-3-3-3-3-5-5-5-5-3-3-3-3----|
B|-3-3-3-3-3-3-3-3-5-5-5-5-3-3-3-3----|
G|-5-5-5-5-4-4-4-4-7-7-7-7-5-5-5-5----|
D|-5-5-5-5-5-5-5-5-7-7-7-7-5-5-5-5----|
A|-3-3-3-3-5-5-5-5-5-5-5-5-3-3-3-3----|
E|-3-3-3-3-3-3-3-3-5-5-5-5-3-3-3-3----|

Thanks for reading this tab, vote and leave a coment! 
Tap to rate this tab
 
# A B C D E F G H I J K L M N O P Q R S T U V W X Y Z