Weezer - Say It Aint So tab

totally my first tab ever, this is how I (one person) plays this. The timing 

shouldn't be too hard to figure out, again I know its not perfect but it doesn't 

sound too bad for just one person.


Eb-----------------------------------|------------------------------------------|
Bb-19br-17-16~----16--16-------------|-19br-17-16~----16--16--------------------|
Gb--------------18--18--18-18br-16---|--------------18--18--18-18br-18-18-16-18^|
Db--------------------------------18~|------------------------------------------|
Ab-----------------------------------|------------------------------------------|
Eb-----------------------------------|------------------------------------------|

                 
Eb--------------------------|-------------------------|-------------------------|
Bb-----17-19h21-19-17-16----|-----17-19h21-19-17-16---|-----17-19h21-19-17-16~--|
Gb16-18------------------18-|16-18------------------18|16-18--------------------|
Db--------------------------|-------------------------|-------------------------|
Ab--------------------------|-------------------------|-------------------------|
Eb--------------------------|-------------------------|-------------------------|


Eb-14-16-14-16br-16-14-16-------|
Bb------------------------17~---|
Gb------------------------------|
Db------------------------------|
Ab------------------------------|
Eb------------------------------|
Tap to rate this tab
 
# A B C D E F G H I J K L M N O P Q R S T U V W X Y Z