Weezer - Wheres My Sex tab

Where's My Sex - Weezer

Tab By: AlvaroBR

Verse:

Guitar1:
e|----------------------------------------------------|
B|----------------------------------------------------|
G|----------------------------------------------------|
D|----------------------------------------------------|
A|-7--7-5--5-3--3-2-2-2-5-7--7--7-5--5-3--3-1-1-1-5-7-|
E|-5--5-3--3-1--1-0-0-0-3-5--5--5-3--3-1--1-0-0-0-3-5-|

Guitar2
Mom made my sex she knitted it with her hands
e|-----------------------------------17B------------------|
B|--------------------------------------------///21///----|
G|--------------------------------------------------------|
D|--------------------------------------------------------|
A|--------------------------------------------------------|
E|--------------------------------------------------------|

Sex making is a family tradction
e|----------------------------17B-------------------------|
B|--------------------------------------------///21///----|
G|--------------------------------------------------------|
D|--------------------------------------------------------|
A|--------------------------------------------------------|
E|--------------------------------------------------------|

Going back to the caveman days They were walking around in a haze...
e|-----------------------------------------------------------------|
B|-----------------------------------------------------------------|
G|-2-2-2-2-2-2-2-2-2-2-2-2-2-2-2-2-2-2-2-2-2-2-2-2-2-2-2-2-2-2-2-2-|
D|-----------------------------------------------------------------|
A|-----------------------------------------------------------------|
E|-----------------------------------------------------------------|

 ... ďGosh dang, this is great!Ē
e|-----------------------------------------------|
B|-2-2-2-2-2-2-2-2-2-2-2-2-2-2-2-5-5-5-5-9-9-9-9-|
G|-----------------------------------------------|
D|-----------------------------------------------|
A|-----------------------------------------------|
E|-----------------------------------------------|

Bridge:

Guitar1:
e|-----------------------------------1-1-1-1-1-1-1-1-1-1-1-1-1-1-1-1-2-|
B|-----------------------------------3-3-3-3-3-3-3-3-3-3-3-3-3-3-3-3-3-|
G|-----------------------------------2-2-2-2-2-2-2-2-2-2-2-2-2-2-2-2-2-|
D|-3-3-3-3-3-3-3-3-3-3-3-3-3-3-3-3-3-0-0-0-0-0-0-0-0-0-0-0-0-0-0-0-0-0-|
A|-3-3-3-3-3-3-3-3-3-3-3-3-3-3-3-3-3-----------------------------------|
E|-1-1-1-1-1-1-1-1-1-1-1-1-1-1-1-1-1-----------------------------------|

Guitar2:
But now Iím like a prehistoric screwball Walking Ďround with no sex at all, I said
e|---------------------------------------------------------------------|
B|-2-0-2-0-2-0-2-0-2-0-2-0-2-0-2-0-2-0-2-0-2-0-2-0-2-0-2-0-2-0-2-0-2-0-|
G|---------------------------------------------------------------------|
D|---------------------------------------------------------------------|
A|---------------------------------------------------------------------|
E|---------------------------------------------------------------------|

Chorus PT1:
Guitar1:
e|--------------------------------------------------|
B|--------------------------------------------------|
G|--------------------------------------------------|
D|-7--7-5--5-3--3-2-2-2-5-7--7-5--5-3--3-2-2-2-5-7--|
A|-7--7-5--5-3--3-2-2-2-5-7--7-5--5-3--3-2-2-2-5-7--|
E|-5--5-3--3-1--1-0-0-0-3-5--5-3--3-1--1-0-0-0-3-5--|

Guitar2:
Whereís my sex? I thought it was here Under the bench But it isnít there
e|-------------------------------------------------------------------|
B|-/////17B//////-----------------/////17B/////----------------------|
G|-------------------------------------------------------------------|
D|-------------------------------------------------------------------|
A|-------------------------------------------------------------------|
E|-------------------------------------------------------------------|

Iíve got no idea where it disappeared to Iím running late, I canít be late
-------------------------------------------------------|
-/////17B/////-----------------------/////17B/////-----|
-------------------------------------------------------|
-------------------------------------------------------|
-------------------------------------------------------|
-------------------------------------------------------|

Chorus PT2:
Both Guitars
I canít go out without my sex      Itís cold outside if my toes get wet
e|-3-3-3-3-3-3-3-3-3-3-3-3-3-3-3-3-5-5-5-5-5-5-5-5-5-5-5-5-5-5-5-5-|
B|-3-3-3-3-3-3-3-3-3-3-3-3-3-3-3-3-6-6-6-6-6-6-6-6-5-5-5-5-5-5-5-5-|
G|-5-5-5-5-5-5-5-5-4-4-4-4-4-4-4-4-7-7-7-7-7-7-7-7-5-5-5-5-5-5-5-5-|
D|-5-5-5-5-5-5-5-5-5-5-5-5-5-5-5-5-7-7-7-7-7-7-7-7-7-7-7-7-7-7-7-7-|
A|-3-3-3-3-3-3-3-3-5-5-5-5-5-5-5-5-5-5-5-5-5-5-5-5-7-7-7-7-7-7-7-7-|
E|-3-3-3-3-3-3-3-3-3-3-3-3-3-3-3-3-5-5-5-5-5-5-5-5-5-5-5-5-5-5-5-5-|

Both guitars
And people will think that Iím an alien Just cruising in to make a friend
e|-3-3-3-3-3-3-3-3----3-3-3-3-3-3-3-3----5-5-5-5-5-6-6-6//8-8---8-8------|
B|-3-3-3-3-5-3-3-3----3-3-3-3-3-3-3-3----6-6-6-5-6-6-6-6//8-8---8-8------|
G|-5-5-5-5-5-5-5-5----4-4-4-4-5-4-4-4----7-7-7-7-7-7-7-7/10-10-10-10-----|
D|-5-5-5-5-5-5-5-5----5-5-5-5-5-5-5-5----7-7-7-7-7-7-7-7/10-10-10-10-----|
A|-3-3-3-3-3-3-3-3----5-5-5-5-5-5-5-5----5-5-5-5-5-5-5-5//8-8---8-8------|
E|-3-3-3-3-3-3-3-3----3-3-3-3-3-3-3-3----5-5-5-5-5-5-5-5//8-8---8-8------|

Backing to verse Play:

e|------------------------|
B|------------------------|
G|------------------------|
D|-------(continue-verse)-|
A|------------------------|
E|-88-66------------------|

Verse

Bridge

ChorusPt1

ChorusPT2

Interlude:
Both Guitars
People can you hear me talking
I know you all are happy, rawking
Could you lend me a dime . . . pretty please?
Brother, sister got time? I got no--
Sex on my feet
Sex in my drawer
Sex in my shoes
Or sex on the floor, I said
e|-6--6-6-6-6--6-6-6-6-|
B|-6--6-6-6-6--6-6-6-6-|
G|-7--8-8-7-7--8-8-8-8-|
D|-8--8-8-8-8--8-8-8-8-|
A|-8--6-6-8-8--6-6-6-6-|
E|-6--6-6-6-6--6-6-6-6-|

ChorusPT1

ChorusPT2

End With:

e|-5/////0----|
B|-5/////0----|
G|-6/////0----|
D|-7/////0----|
A|-7/////0----|
E|-5/////0----|

Information of music:
Verse
Bridge
ChorusPT1
ChorusPT2
Verse
Bridge
ChorusPT1
ChorusPT2
Interlude
ChorusPT1
ChorusPT2
End With: A

Vote And Comente

alvinhorafael@hotmail.com
Tap to rate this tab
 
# A B C D E F G H I J K L M N O P Q R S T U V W X Y Z