Song name
# A B C D E F G H I J K L M N O P Q R S T U V W X Y Z

Weezer - Run Away chords

Highlighted       Show chord diagrams
Run Away - Weezer
Tab By: AlvaroBR

Chords Used

   D7+    D6   D\C#   D     G    Gdim  Gm7   G13    A     A9   A7    Bm7  Em
e|--0--|--0--|--2--|--2--|--3--|--3--|--x--|--2--|-----|-----|-----|--2--|-
B|--2--|--0--|--3--|--3--|--4--|--3--|--x--|--3--|--2--|--x--|--2--|--3--|--|
G|--2--|--2--|--2--|--2--|--5--|--6--|--x--|--0--|--2--|--2--|--0--|--x--|--|
D|-----|-----|--4--|--0--|--5--|--5--|--3--|--0--|--2--|--2--|--2--|--4--|--|
A|-----|-----|--x--|-----|--3--|--4--|--5--|--x--|--0--|--0--|--0--|--2--|--|
E|-----|-----|-----|-----|--3--|--3--|--3--|--3--|-----|-----|-----|--2--|--|

Intro:
     D7+   D6          G    A      D7+   D6
I thought you would always be my friend
     G    A          D7+   D6
Now everything must end
     G     A            D7+   D6
And so the world moves on
     G     A         D7+   D6  D7+
And everything must change

Verse:
 D                        D\C#                      Gdim G Gdim G
When I'm looking at the night sky, I can see my soul
 D                        D\C#                      Gdim G Gdim G
I see the little lights flashing at each other up above
 Em              A9               Em 
Is it us making love in the Milky Way
 Em          G7
Long before we threw it all away?

Chorus:
 G13        A7                        G13   A7
Hey, you, uh-uh we're running out of time uh-uh
                  G13    A7
And you know it's true uh-uh
                Bm7
I just want to run away from here with you
  D7+      Riff      D7+     Riff
Tonight...        Tonight...

Riff:
e|-------------------|  |------3-------------------|
B|-------------------|  |-----3-----------2--------|
G|-------------------|  |----0-----------2---------|
D|-------------------|OR|---0-----------2----------|
A|-------------------|  |--2----2-5-5--0----2-4-4--|
E|-3-3/10-10--7-7/9--|  |-3------------------------|

Verse2:
D                        D\C#                          Gdim G Gdim G
Sometimes I wish I was a house at the end of the block
D                        D\C#
You could smash all my windows with the throw of a rock
Em                 Bm7                            Em
And make the hurt go away, come again some other day

Em               G7
There's so much I want to say about

Chorus:
G13   A7                        G13   A7
You uh-uh we're running out of time uh-uh
                   G13   A7
And you know it's true uh-uh
                Bm7
I just want to run away from here with you  

Guitar play:
e|--9-7-9-9-9-9-9-9/10B-|
B|-7---7-7-7-7-7-7------|
G|----------------------|
D|----------------------|
A|----------------------|
E|----------------------|

End:
    D7+   D6          G     A      D7+  D6
I thought you would always be my friend
      G   A         D7+  D6
But everything must end
            G     A    D7+  D6
And so the world moves on
        G   A          D7+  D6
Cause everything must change
     G      A        D7+  D6
And now you're all alone
        G       A      D7+  D6       
You're sitting by the telephone
 G    A     D7+  D6
You wonder why
 G    A     D7+  D6
Everyone will cry
 G  A  D7+  D6
      Tonight...
 G  A  D7+  D6
      Tonight...
 G  A  D7+  D6
      Tonight...
 G  A  D7+ 
      Tonight...

End with: D7+

Thank to Read this tab, vote e coment.

alvinhorafael@hotmail.com
Tap to rate this tab
 
# A B C D E F G H I J K L M N O P Q R S T U V W X Y Z