Guitaretab - guitar tabs
Song name
# A B C D E F G H I J K L M N O P Q R S T U V W X Y Z

Weezer - You Gave Your Love To Me Softly tab

--------------------------------------------------------------------------------------------------
You Gave Your Love To Me Softly - Weezer
--------------------------------------------------------------------------------------------------

Tabbed by: cjpm105

Tuning: Guitar 1 - Standard, half step down.
        Guitar 2 - Standard, half step down.
        Guitar 3 - Standard, half step down.

This is the version on the El Scorcho single as a b-side.

When two sets of lines are separated by asterisks, Guitar 1 is followed by Guitar 2 and 
are
played simultaneously. When they’re not, Guitar 1 and 2 are playing the same thing. 
3 only
comes in during the solo.

Intro/ Verse
eb|-----------------------------------------------------------------|
Bb|-----------------------------------------------------------------|
Gb|-----------------------------------------------------------------|
Db|--7-7-7-7-7-7-7-7-9-9-9-9-9-9-9-9-4-4-4--4-4--4-4--\\\\\\\\\\\\--|
Ab|--5-5-5-5-5-5-5-5-7-7-7-7-7-7-7-7-4-4-4--4-4--4-4--\pick slide\--|
Eb|--5-5-5-5-5-5-5-5-7-7-7-7-7-7-7-7-2-2-2--0-2--0-2--\\\\\\\\\\\\--|

eb|-----------------------------------------------------------------|
Bb|-----------------------------------------------------------------|
Gb|-----------------------------------------------------------------|
Db|--7-7-7-7-7-7-7-7-9-9-9-9-9-9-9-9-4-4-4--4-4--4-4--4-4--4-4-4-4--|
Ab|--5-5-5-5-5-5-5-5-7-7-7-7-7-7-7-7-4-4-4--4-4--4-4--4-4--4-4-4-4--|
Eb|--5-5-5-5-5-5-5-5-7-7-7-7-7-7-7-7-2-2-2--0-2--0-2--0-2--0-0-2-0--|

eb|-------------------------------------------------------------------|
Bb|-------------------------------------------------------------------|
Gb|-------------------------------------------------------------------|
Db|--7-7-7-7-7-7-7-7-9-9-9-9-9-9-9-9-7-7-7-7-7-7-7-7-7-7-7-7-7-7-7-7--|
Ab|--5-5-5-5-5-5-5-5-7-7-7-7-7-7-7-7-7-7-7-7-7-7-7-7-5-5-5-5-5-5-5-5--|
Eb|--5-5-5-5-5-5-5-5-7-7-7-7-7-7-7-7-5-5-5-5-5-5-5-5-5-5-5-5-5-5-5-5--|

eb|-------------------------------------------------------------------|
Bb|-------------------------------------------------------------------|
Gb|--------------------------------------------------9-9-11-11-6-6-6--|
Db|--7-7-7-7-7-7-7-7-9-9-9-9-9-9-9-9-7-7-7-7-7-7-7-7-x-x--x--x-x-x-x--|
Ab|--7-7-7-7-7-7-7-7-7-7-7-7-7-7-7-7-7-7-7-7-7-7-7-7-7-7--9--9-4-4-4--|
Eb|--5-5-5-5-5-5-5-5-7-7-7-7-7-7-7-7-5-5-5-5-5-5-5-5------------------|

eb|-----------------------------------------------------------------|
Bb|-----------------------------------------------------------------|
Gb|-----------------------------------------------------------------|
Db|--7-7-7-7-7-7-7-7-9-9-9-9-9-9-9-9-4-4-4--4-4--4-4--4-4--4-4-4-4--|
Ab|--5-5-5-5-5-5-5-5-7-7-7-7-7-7-7-7-4-4-4--4-4--4-4--4-4--4-4-4-4--|
Eb|--5-5-5-5-5-5-5-5-7-7-7-7-7-7-7-7-2-2-2--0-2--0-2--0-2--0-0-2-0--|
*********************************************************************
eb|-----------------------------------------------------------------|
Bb|-----------------------------------------------------------------|
Gb|----------------------------------------------------13--11~------|
Db|--7-7-7-7-7-7-7-7-9-9-9-9-9-9-9-9-4-4-4--4-4----11---------------|
Ab|--5-5-5-5-5-5-5-5-7-7-7-7-7-7-7-7-4-4-4--4-4---------------------|
Eb|--5-5-5-5-5-5-5-5-7-7-7-7-7-7-7-7-2-2-2--0-2---------------------|

eb|-----------------------------------------------------------------|
Bb|-----------------------------------------------------------------|
Gb|-----------------------------------------------------------------|
Db|--7-7-7-7-7-7-7-7-9-9-9-9-9-9-9-9-4-4-4--4-4--4-4--4-4--4-4-4-4--|
Ab|--5-5-5-5-5-5-5-5-7-7-7-7-7-7-7-7-4-4-4--4-4--4-4--4-4--4-4-4-4--|
Eb|--5-5-5-5-5-5-5-5-7-7-7-7-7-7-7-7-2-2-2--0-2--0-2--0-2--0-0-2-0--|
*********************************************************************
eb|-----------------------------------------------------------------|
Bb|-----------------------------------------------------------------|
Gb|-------------------------------------------------13----13-----13-|
Db|--7-7-7-7-7-7-7-7-9-9-9-9-9-9-9-9-4-4-4--4-4--11----11-----11----|
Ab|--5-5-5-5-5-5-5-5-7-7-7-7-7-7-7-7-4-4-4--4-4---------------------|
Eb|--5-5-5-5-5-5-5-5-7-7-7-7-7-7-7-7-2-2-2--0-2---------------------|

eb|-------------------------------------------------------------------|
Bb|-------------------------------------------------------------------|
Gb|-------------------------------------------------------------------|
Db|--7-7-7-7-7-7-7-7-9-9-9-9-9-9-9-9-7-7-7-7-7-7-7-7-7-7-7-7-7-7-7-7--|
Ab|--5-5-5-5-5-5-5-5-7-7-7-7-7-7-7-7-7-7-7-7-7-7-7-7-5-5-5-5-5-5-5-5--|
Eb|--5-5-5-5-5-5-5-5-7-7-7-7-7-7-7-7-5-5-5-5-5-5-5-5-5-5-5-5-5-5-5-5--|

eb|-------------------------------------------------------------------|
Bb|-------------------------------------------------------------------|
Gb|-------------------------------------------------------------------|
Db|--7-7-7-7-7-7-7-7-9-9-9-9-9-9-9-9-7-7-7-7-7-7-7-7-7-7-7-7-7-7-7-7--|
Ab|--7-7-7-7-7-7-7-7-7-7-7-7-7-7-7-7-7-7-7-7-7-7-7-7-7-7-7-7-7-7-7-7--|
Eb|--5-5-5-5-5-5-5-5-7-7-7-7-7-7-7-7-5-5-5-5-5-5-5-5-5-5-5-5-5-5-5-5--|

Chorus
eb|-------------------------------------------------------------------|
Bb|-------------------------------------------------------------------|
Gb|-------------------------------------------------------------------|
Db|--7-7-7-7-7-7-7-7-7-7-7-7-7-7-7-7-7-7-7-7-7-7-7-7-7-7-7-7-9-9-9-9--|
Ab|--5-5-5-5-5-5-5-5-7-7-7-7-7-7-7-7-5-5-5-5-5-5-5-5-7-7-7-7-7-7-7-7--|
Eb|--5-5-5-5-5-5-5-5-5-5-5-5-5-5-5-5-5-5-5-5-5-5-5-5-5-5-5-5-7-7-7-7--|
[ Tab from: http://www.guitaretab.com/w/weezer/26249.html ]
eb|-------------------------------------------------------------------|
Bb|-------------------------------------------------------------------|
Gb|-------------------------------------------------------------------|
Db|--7-7-7-7-7-7-7-7-7-7-7-7-7-7-7-7-4-4-4-4-2-2-2-2-7-7-7-7-7-7-7-7--|
Ab|--5-5-5-5-5-5-5-5-7-7-7-7-7-7-7-7-4-4-4-4-2-2-2-2-7-7-7-7-7-7-7-7--|
Eb|--5-5-5-5-5-5-5-5-5-5-5-5-5-5-5-5-2-2-2-2-0-0-0-0-5-5-5-5-5-5-5-5--|

During the solo, Guitars 1 and 2 play the solo and Guitar 3 plays the intro/verse riff. 
can
play the two solo parts as octaves, but there’s definitely two guitars playing the solo 
the song.

Solo
eb|-------------------------------------------------------------------------|
Bb|-------------------------------------------------------------------------|
Gb|-------------9--9b11--------6--------------------------------------------|
Db|--11--11-11------------9-------7--6------------9b10--9p7-9p7----7-7------|
Ab|---------------------------------------9-9-------------------9------9-7--|
Eb|-------------------------------------------------------------------------|
*****************************************************************************
eb|-------------------------------------------------------------------------|
Bb|--14--14-14-17--17b19------14--------------------------------------------|
Gb|-----------------------16-----14--13----11-11~---------------------------|
Db|-------------------------------------------------------------------------|
Ab|-------------------------------------------------------------------------|
Eb|-------------------------------------------------------------------------|

eb|------------------------------------------------16----16~------16~-------|
Bb|---------------------------------------------14----14-------14-----------|
Gb|-------------9--9b11--------6--------------------------------------------|
Db|--11--11-11------------9-------7--6~-------------------------------------|
Ab|-------------------------------------------------------------------------|
Eb|-------------------------------------------------------------------------|
*****************************************************************************
eb|------------------------------------------------16----16~------16~-------|
Bb|--14--14-14-17--17b19------14----------------14----14-------14-----------|
Gb|-----------------------16-----14--13~------------------------------------|
Db|-------------------------------------------------------------------------|
Ab|-------------------------------------------------------------------------|
Eb|-------------------------------------------------------------------------|

eb|-----------------------------------------------------17~-----------------|
Bb|--14--14-14-17--17b19------14--------------14--17-14---------------------|
Gb|-----------------------16-----14--13--14---------------------------------|
Db|-------------------------------------------------------------------------|
Ab|-------------------------------------------------------------------------|
Eb|-------------------------------------------------------------------------|
*****************************************************************************
eb|-----------------------------------------------------17~-----------------|
Bb|--14--14-14-17--17b19------14--------------14--17-14---------------------|
Gb|-----------------------16-----14--13--14---------------------------------|
Db|-------------------------------------------------------------------------|
Ab|-------------------------------------------------------------------------|
Eb|-------------------------------------------------------------------------|

Final Verse
eb|-----------------------------------------------------------------------------------|
Bb|-----------------------------------------------------------------------------------|
Gb|-----------------------------------------------------------------------------------|
Db|--7-7-7-7-7-7-7-7-7-7-7-7-7-7-7-7-9-9-9-9-9-9-9-9-7-7-7-7-7-7-7-7-7-7-7-7-7-7-7-7--|
Ab|--5-5-5-5-5-5-5-5-7-7-7-7-7-7-7-7-7-7-7-7-7-7-7-7-7-7-7-7-7-7-7-7-7-7-7-7-7-7-7-7--|
Eb|--5-5-5-5-5-5-5-5-5-5-5-5-5-5-5-5-7-7-7-7-7-7-7-7-5-5-5-5-5-5-5-5-5-5-5-5-5-5-5-5--|

Final Chorus
eb|-------------------------------------------------------------------------------------------|
Bb|-------------------------------------------------------------------------------------------|
Gb|-------------------------------------------------------------------------------------------|
Db|--7-7-7-7-7-7-7-7-7-7-7-7-7-7-7-7-7-7-7-7-7-7-7-7-7-7-7-7-9-9-9-9--4--4--2--2--7--7--7--7--|
Ab|--5-5-5-5-5-5-5-5-7-7-7-7-7-7-7-7-5-5-5-5-5-5-5-5-7-7-7-7-7-7-7-7--4--4--2--2--7--7--7--7--|
Eb|--5-5-5-5-5-5-5-5-5-5-5-5-5-5-5-5-5-5-5-5-5-5-5-5-5-5-5-5-7-7-7-7--2--2--0--0--5--5--5--5--|

Outro
eb|-------------------------------------------------------------------------------------------|
Bb|-------------------------------------------------------------------------------------------|
Gb|-------------------------------------------------------------------------------------------|
Db|--4-4-4-4-2-2-2-2-6-6-6-6-6-6-6-6-4-4-4-4-2-2-2-2-6-6-6-6-6-6-6-6-4-4-4-4-2-2-2-2-6-6-6-6--|
Ab|--4-4-4-4-2-2-2-2-4-4-4-4-4-4-4-4-4-4-4-4-2-2-2-2-4-4-4-4-4-4-4-4-4-4-4-4-2-2-2-2-4-4-4-4--|
Eb|--2-2-2-2-0-0-0-0-4-4-4-4-4-4-4-4-2-2-2-2-0-0-0-0-4-4-4-4-4-4-4-4-2-2-2-2-0-0-0-0-4-4-4-4--|

eb|----------------------------------------------|
Bb|----------------------------------------------|
Gb|----------------------------------------------|
Db|--7-7-7-7-4-4-4-4-2-2-2-2-7-7-7-7-7-7-7-7-7\--|
Ab|--5-5-5-5-4-4-4-4-2-2-2-2-7-7-7-7-7-7-7-7-7\--|
Eb|--5-5-5-5-2-2-2-2-0-0-0-0-5-5-5-5-5-5-5-5-5\--|
Related for You Gave Your Love To Me Softly tab
Advertisement will be closed in 10 seconds