Weezer - Everone tab

Band: Weezer
Song: Everone
Duration: 02:46
Description: This tab is complete, if you do not understand any part, put the 
music to play and accompany the music.
By: alvinhorafael@hotmail.com
-------------------------------------------------------------------------------
Start with:
e---------|
B---------|
G---------|
D-8-2-5-2-|8x
A-8-2-5-2-|
E-6-0-3-0-|
Chorus:
e|---------|
B|---------|
G|---------|
D|-8-2-5-2-|8x
A|-8-2-5-2-|
E|-6-0-3-0-|

Verse:
Gr1:
e|----------------------------------------------------------|
B|-22--------------------------11-2-------------------------|
G|-44-4-4-3-7-6-3-4--4-4-3-7-6-33-4-4-4-3-7-6-3-4-4-4-3-234-|
D|-44--------------------------33-4---------------------234-|2x
A|-22--------------------------11-2---------------------012-|
E|----------------------------------------------------------|

Gr2:
e|----------------------------|
B|----------------------------|
G|-4-4-3//7-33-4--4-4-3-7-234-|
D|-4-4-3//7-33-4--4-4-3-7-234-|2x
A|-2-2-1//5-11-2--2-2-1-5-012-|
E|----------------------------|

[Chorus]
[Verse]

Solo:
Gr1:
e|--------------|  |---------------------------------|...
B|-----77-------|  |-101010-87-------101010-87-5-7~--|...
G|-444----676-4-|2x|-----------676-4-----------------|...
D|--------------|  |---------------------------------|...
A|--------------|  |---------------------------------|...
E|--------------|  |---------------------------------|...

...|----------------------------|
...|------------------------112-|
...|-4444337766334-44443377-334-|
...|------------------------334-|
...|------------------------112-|
...|----------------------------|

Gr2:
e|----------------------|  |---------------|
B|----------------------|  |---------------|
G|-44-11-11-7-776-3/4-4-|  |-44-------2334-|
D|-44-11-11-7-776-3/4-4-|2x|-44-------2334-|
A|-22-9---9-5-554-1/2-2-|  |-22-----000112-|
E|----------------------|  |---------------|

Interlude:
Bass Break:
G|---------------|
D|---------------|
A|---------------|
E|-6-x-000x-0300-|

e|---------|
B|---------|
G|---------|
D|-8-2-5-2-|8x
A|-8-2-5-2-|
E|-6-0-3-0-|

Thanks to read.
Tap to rate this tab
 
# A B C D E F G H I J K L M N O P Q R S T U V W X Y Z