Song name
# A B C D E F G H I J K L M N O P Q R S T U V W X Y Z

Weezer - Ruling Me tab

-------------------------------------------------------------------------------
			     Ruling Me - Weezer
-------------------------------------------------------------------------------
Tabbed by: Jackson
Email: froschj97@gmail.com
Tuning: Standard

I love this song and Iím pretty sure this sounds right

INTRO:
e|--------------------------------------------|
B|--------------------------------------------|
G|-4-6-4-6-4-4-3-3-3-4-6-6-4-6-4-44444444-----|2X
D|--------------------------------------------|
A|--------------------------------------------|
E|--------------------------------------------|

VERSE:
e|---------------------------------------------------------------------------|
B|---------------------------------------------------------------------------|
G|---------------------------------------------------------------------------|
D|------7--9---------7--9-----------7-7-7------------------------------------|
A|--5---5--7--10--5--5--7--10-10-10-5-5-5------------------------------------|
E|--3------7--8---3-----7--8--8--8-------------------------------------------|

PRE-CHORUS:
e|---------------------------------------------------------------------------|
B|---------------------------------------------------------------------------|
G|---------------------------------------------------------------------------|
D|--9-----7-----9--7--7------------------------------------------------------|
A|--X--7--5--5--X--5--5------------------------------------------------------|
E|--7--7-----3--7------------------------------------------------------------|

CHORUS:
e|---------------------------------------------------------------------------|
B|---------------------------------------------------------------------------|
G|---------------------------------------------------------------------------|
D|---------7--9---------7---------7---------7ó-9-----------------------------|
A|--10--5--5--X--10--5--5--10--5--5--10--5--5--X--5--10----------------------|
E|--8---3-----7--8---3-----8---3-----8---3-----7--3--8-----------------------|

For the bridge strum up and down when you play these chords and itíll sound good

BRIDGE:
e|---------------------------------------------------------------------------|
B|---------------------------------------------------------------------------|
G|---------------------------------------------------------------------------|
D|-----7------5--------------------------------------------------------------|
A|--9--5--10--3--------------------------------------------------------------|
E|--7-----8------------------------------------------------------------------|

Thatís about it
Tap to rate this tab
 
# A B C D E F G H I J K L M N O P Q R S T U V W X Y Z