Song name
# A B C D E F G H I J K L M N O P Q R S T U V W X Y Z

Weezer - El Scorcho tab

  Intro              play 4 times
eb|----------------||----------------------|
Bb|----------------||------------7---------|
Gb|----------------||----6---------7-------|
Db|----------------||------7---7-----------|
Ab|----------------||--7-----5-------------|
Eb|----------------||5---------------------|
   1 + 2 + 3 + 4 +   1 + 2 + 3 + 4 +
       (Drums)      (4th time) 
  
Verse           play 6 times (rest for two measures)
eb|------------------------------------------------|
Bb|------------7-----------------------------------|
Gb|----6---------7---------------------------------|
Db|------7---7-------------------------------------|
Ab|--7-----5---------------------------------------|
Eb|5-----------------------------------------------|
   1 + 2 + 3 + 4 +


Chorus play 8 times
eb|------------------------------------------------|
Bb|------------7-----------------------------------|
Gb|----6---------7---------------------------------|
Db|------7---7-------------------------------------|
Ab|--7-----5---------------------------------------|
Eb|5-----------------------------------------------|
   1 + 2 + 3 + 4 +


Verse 2         play 6 times (rest for two measures)
eb|------------------------------------------------|
Bb|------------7-----------------------------------|
Gb|----6---------7---------------------------------|
Db|------7---7-------------------------------------|
Ab|--7-----5---------------------------------------|
Eb|5-----------------------------------------------|
   1 + 2 + 3 + 4 +

Fill (starting at Verse 2)
eb|---------------|--------------------------|
Bb|---------------|--------------------------|
Gb|---------------|--------11-11-11-10-10-10-|
Db|---------------|--------------------------|
Ab|---------------|--------------------------|
Eb|---------------|--------------------------|
   1 + 2 + 3 + 4 + 1 + 2 + 3 e + a 4 e + a 

Fill cont'd
eb|------------------|-------------------|
Bb|------------------|-------------------|
Gb|------------11-11-|13-13-14-14-16--14\|
Db|------------------|-------------------|
Db|------------------|-------------------|
Ab|------------------|-------------------|
Eb|------------------|-------------------| 
   1 + 2 + 3 + 4 +    1  +  2  +  3 + 4 +


Chorus 2


Bridge (double time)                                  play two times
eb|----------------|----------------|----------------|----------------|
Bb|----------------|----------------|----------------|----------------|
Gb|----------------|----------------|----------------|----------------|
Db|----------------|----------------|----------------|----------------|
Db|----------------|7-7-7-7-7-7-7-7-|----------------|9-9-9-9-9-9-9-9-|
Ab|7-7-7-7-7-7-7-7-|5-5-5-5-5-5-5-5-|9-9-9-9-9-9-9-9-|7-7-7-7-7-7-7-7-|
Eb|5-5-5-5-5-5-5-5-|----------------|7-7-7-7-7-7-7-7-|----------------|
   1 + 2 + 3 + 4 +  1 + 2 + 3 + 4 +  1 + 2 + 3 + 4 +  1 + 2 + 3 + 4 +

Bridge cont'd (regular time)      play two time
eb|----------------|----------------|
Bb|----------------|----------------|
Gb|----------------|----------------|
Db|----------------|----------------|
Db|--------7-7-7---|--------9-9-9---|
Ab|7-7-7---5-5-5---|9-9-9---7-7-7---|
Eb|5-5-5-----------|7-7-7-----------|
   1 + 2 + 3 + 4 +  1 + 2 + 3 + 4 +  


Solo
eb|---------------|---------------|--19-17-16h17--|-21----19h21---|
Bb|12----14-------|--10-12-19-17--|-------------17|---------------|
Gb|--------10-----|---------------|---------------|----18---------|
Db|---------------|---------------|---------------|---------------|
Ab|---------------|---------------|---------------|---------------|
Eb|---------------|---------------|---------------|---------------|
   1 + 2 + 3 + 4 + 1 + 2 + 3 + 4 + 1 + 2 + 3 + 4 + 1 + 2 + 3 + 4 +


Verse 3 play 7 times (no rest)


Chorus 3 + Outro play 16 times (Chorus = Outro)
Tap to rate this tab
 
# A B C D E F G H I J K L M N O P Q R S T U V W X Y Z